  0
SECTION
  2
HEADER
  9
$ACADVER
  1
AC1018
  9
$ACADMAINTVER
 70
     0
  9
$DWGCODEPAGE
  3
ANSI_1252
  9
$INSBASE
 10
0.0
 20
0.0
 30
0.0
  9
$EXTMIN
 10
198.580394091661
 20
109.3337065269408
 30
0.0
  9
$EXTMAX
 10
307.9289026502457
 20
250.8603847856
 30
0.0
  9
$LIMMIN
 10
0.0
 20
0.0
  9
$LIMMAX
 10
12.0
 20
9.0
  9
$ORTHOMODE
 70
     0
  9
$REGENMODE
 70
     1
  9
$FILLMODE
 70
     1
  9
$QTEXTMODE
 70
     0
  9
$MIRRTEXT
 70
     1
  9
$LTSCALE
 40
1.0
  9
$ATTMODE
 70
     1
  9
$TEXTSIZE
 40
0.2
  9
$TRACEWID
 40
0.05
  9
$TEXTSTYLE
  7
Standard
  9
$CLAYER
  8
0
  9
$CELTYPE
  6
ByLayer
  9
$CECOLOR
 62
   256
  9
$CELTSCALE
 40
1.0
  9
$DISPSILH
 70
     0
  9
$DIMSCALE
 40
1.0
  9
$DIMASZ
 40
0.18
  9
$DIMEXO
 40
0.0625
  9
$DIMDLI
 40
0.38
  9
$DIMRND
 40
0.0
  9
$DIMDLE
 40
0.0
  9
$DIMEXE
 40
0.18
  9
$DIMTP
 40
0.0
  9
$DIMTM
 40
0.0
  9
$DIMTXT
 40
0.18
  9
$DIMCEN
 40
0.09
  9
$DIMTSZ
 40
0.0
  9
$DIMTOL
 70
     0
  9
$DIMLIM
 70
     0
  9
$DIMTIH
 70
     1
  9
$DIMTOH
 70
     1
  9
$DIMSE1
 70
     0
  9
$DIMSE2
 70
     0
  9
$DIMTAD
 70
     0
  9
$DIMZIN
 70
     0
  9
$DIMBLK
  1

  9
$DIMASO
 70
     1
  9
$DIMSHO
 70
     1
  9
$DIMPOST
  1

  9
$DIMAPOST
  1

  9
$DIMALT
 70
     0
  9
$DIMALTD
 70
     2
  9
$DIMALTF
 40
25.4
  9
$DIMLFAC
 40
1.0
  9
$DIMTOFL
 70
     0
  9
$DIMTVP
 40
0.0
  9
$DIMTIX
 70
     0
  9
$DIMSOXD
 70
     0
  9
$DIMSAH
 70
     0
  9
$DIMBLK1
  1

  9
$DIMBLK2
  1

  9
$DIMSTYLE
  2
Standard
  9
$DIMCLRD
 70
     0
  9
$DIMCLRE
 70
     0
  9
$DIMCLRT
 70
     0
  9
$DIMTFAC
 40
1.0
  9
$DIMGAP
 40
0.09
  9
$DIMJUST
 70
     0
  9
$DIMSD1
 70
     0
  9
$DIMSD2
 70
     0
  9
$DIMTOLJ
 70
     1
  9
$DIMTZIN
 70
     0
  9
$DIMALTZ
 70
     0
  9
$DIMALTTZ
 70
     0
  9
$DIMUPT
 70
     0
  9
$DIMDEC
 70
     4
  9
$DIMTDEC
 70
     4
  9
$DIMALTU
 70
     2
  9
$DIMALTTD
 70
     2
  9
$DIMTXSTY
  7
Standard
  9
$DIMAUNIT
 70
     0
  9
$DIMADEC
 70
     0
  9
$DIMALTRND
 40
0.0
  9
$DIMAZIN
 70
     0
  9
$DIMDSEP
 70
    46
  9
$DIMATFIT
 70
     3
  9
$DIMFRAC
 70
     0
  9
$DIMLDRBLK
  1

  9
$DIMLUNIT
 70
     2
  9
$DIMLWD
 70
    -2
  9
$DIMLWE
 70
    -2
  9
$DIMTMOVE
 70
     0
  9
$LUNITS
 70
     2
  9
$LUPREC
 70
     4
  9
$SKETCHINC
 40
0.1
  9
$FILLETRAD
 40
0.5
  9
$AUNITS
 70
     0
  9
$AUPREC
 70
     0
  9
$MENU
  1
.
  9
$ELEVATION
 40
0.0
  9
$PELEVATION
 40
0.0
  9
$THICKNESS
 40
0.0
  9
$LIMCHECK
 70
     0
  9
$CHAMFERA
 40
0.5
  9
$CHAMFERB
 40
0.5
  9
$CHAMFERC
 40
1.0
  9
$CHAMFERD
 40
0.0
  9
$SKPOLY
 70
     0
  9
$TDCREATE
 40
2456388.490441736
  9
$TDUCREATE
 40
2456388.407108403
  9
$TDUPDATE
 40
2456388.490441747
  9
$TDUUPDATE
 40
2456388.407108414
  9
$TDINDWG
 40
0.0000000116
  9
$TDUSRTIMER
 40
0.0000000116
  9
$USRTIMER
 70
     1
  9
$ANGBASE
 50
0.0
  9
$ANGDIR
 70
     0
  9
$PDMODE
 70
     0
  9
$PDSIZE
 40
0.0
  9
$PLINEWID
 40
0.0
  9
$SPLFRAME
 70
     0
  9
$SPLINETYPE
 70
     6
  9
$SPLINESEGS
 70
     8
  9
$HANDSEED
  5
171
  9
$SURFTAB1
 70
     6
  9
$SURFTAB2
 70
     6
  9
$SURFTYPE
 70
     6
  9
$SURFU
 70
     6
  9
$SURFV
 70
     6
  9
$UCSBASE
  2

  9
$UCSNAME
  2

  9
$UCSORG
 10
0.0
 20
0.0
 30
0.0
  9
$UCSXDIR
 10
1.0
 20
0.0
 30
0.0
  9
$UCSYDIR
 10
0.0
 20
1.0
 30
0.0
  9
$UCSORTHOREF
  2

  9
$UCSORTHOVIEW
 70
     0
  9
$UCSORGTOP
 10
0.0
 20
0.0
 30
0.0
  9
$UCSORGBOTTOM
 10
0.0
 20
0.0
 30
0.0
  9
$UCSORGLEFT
 10
0.0
 20
0.0
 30
0.0
  9
$UCSORGRIGHT
 10
0.0
 20
0.0
 30
0.0
  9
$UCSORGFRONT
 10
0.0
 20
0.0
 30
0.0
  9
$UCSORGBACK
 10
0.0
 20
0.0
 30
0.0
  9
$PUCSBASE
  2

  9
$PUCSNAME
  2

  9
$PUCSORG
 10
0.0
 20
0.0
 30
0.0
  9
$PUCSXDIR
 10
1.0
 20
0.0
 30
0.0
  9
$PUCSYDIR
 10
0.0
 20
1.0
 30
0.0
  9
$PUCSORTHOREF
  2

  9
$PUCSORTHOVIEW
 70
     0
  9
$PUCSORGTOP
 10
0.0
 20
0.0
 30
0.0
  9
$PUCSORGBOTTOM
 10
0.0
 20
0.0
 30
0.0
  9
$PUCSORGLEFT
 10
0.0
 20
0.0
 30
0.0
  9
$PUCSORGRIGHT
 10
0.0
 20
0.0
 30
0.0
  9
$PUCSORGFRONT
 10
0.0
 20
0.0
 30
0.0
  9
$PUCSORGBACK
 10
0.0
 20
0.0
 30
0.0
  9
$USERI1
 70
     0
  9
$USERI2
 70
     0
  9
$USERI3
 70
     0
  9
$USERI4
 70
     0
  9
$USERI5
 70
     0
  9
$USERR1
 40
14.5
  9
$USERR2
 40
0.0
  9
$USERR3
 40
0.0
  9
$USERR4
 40
0.0
  9
$USERR5
 40
0.0
  9
$WORLDVIEW
 70
     1
  9
$SHADEDGE
 70
     3
  9
$SHADEDIF
 70
    70
  9
$TILEMODE
 70
     1
  9
$MAXACTVP
 70
    64
  9
$PINSBASE
 10
0.0
 20
0.0
 30
0.0
  9
$PLIMCHECK
 70
     0
  9
$PEXTMIN
 10
1.00000000000000E+20
 20
1.00000000000000E+20
 30
1.00000000000000E+20
  9
$PEXTMAX
 10
-1.00000000000000E+20
 20
-1.00000000000000E+20
 30
-1.00000000000000E+20
  9
$PLIMMIN
 10
0.0
 20
0.0
  9
$PLIMMAX
 10
12.0
 20
9.0
  9
$UNITMODE
 70
     0
  9
$VISRETAIN
 70
     1
  9
$PLINEGEN
 70
     0
  9
$PSLTSCALE
 70
     1
  9
$TREEDEPTH
 70
  3020
  9
$CMLSTYLE
  2
Standard
  9
$CMLJUST
 70
     0
  9
$CMLSCALE
 40
1.0
  9
$PROXYGRAPHICS
 70
     1
  9
$MEASUREMENT
 70
     1
  9
$CELWEIGHT
370
    -1
  9
$ENDCAPS
280
     0
  9
$JOINSTYLE
280
     0
  9
$LWDISPLAY
290
     0
  9
$INSUNITS
 70
     1
  9
$HYPERLINKBASE
  1

  9
$STYLESHEET
  1

  9
$XEDIT
290
     1
  9
$CEPSNTYPE
380
     0
  9
$PSTYLEMODE
290
     1
  9
$FINGERPRINTGUID
  2
{F8520A54-86E2-484A-9DBB-B361F1D02933}
  9
$VERSIONGUID
  2
{FAEB1C32-E019-11D5-929B-00C0DF256EC4}
  9
$EXTNAMES
290
     1
  9
$PSVPSCALE
 40
0.0
  9
$OLESTARTUP
290
     0
  9
$SORTENTS
280
   127
  9
$INDEXCTL
280
     0
  9
$HIDETEXT
280
     1
  9
$XCLIPFRAME
290
     0
  9
$HALOGAP
280
     0
  9
$OBSCOLOR
 70
   257
  9
$OBSLTYPE
280
     0
  9
$INTERSECTIONDISPLAY
280
     0
  9
$INTERSECTIONCOLOR
 70
   257
  9
$DIMASSOC
280
     2
  9
$PROJECTNAME
  1

  0
ENDSEC
  0
SECTION
  2
CLASSES
  0
CLASS
  1
ACDBDICTIONARYWDFLT
  2
AcDbDictionaryWithDefault
  3
ObjectDBX Classes
 90
        0
 91
        3
280
     0
281
     0
  0
CLASS
  1

  2
exOdDbCircle
  3

 90
        0
 91
        3
280
     0
281
     1
  0
CLASS
  1

  2
exOdDbSpline
  3

 90
        0
 91
        3
280
     0
281
     1
  0
ENDSEC
  0
SECTION
  2
TABLES
  0
TABLE
  2
VPORT
  5
8
330
0
100
AcDbSymbolTable
 70
     1
  0
VPORT
  5
29
330
8
100
AcDbSymbolTableRecord
100
AcDbViewportTableRecord
  2
*Active
 70
     0
 10
0.0
 20
0.0
 11
1.0
 21
1.0
 12
253.2546483709533
 22
180.0970456562704
 13
0.0
 23
0.0
 14
0.5
 24
0.5
 15
0.5
 25
0.5
 16
0.0
 26
0.0
 36
1.0
 17
0.0
 27
0.0
 37
0.0
 40
155.6793460845251
 41
1.60267857142857
 42
50.0
 43
0.0
 44
0.0
 50
0.0
 51
0.0
 71
     0
 72
   100
 73
     1
 74
     3
 75
     0
 76
     0
 77
     0
 78
     0
281
     0
 65
     1
110
0.0
120
0.0
130
0.0
111
1.0
121
0.0
131
0.0
112
0.0
122
1.0
132
0.0
 79
     0
146
0.0
  0
ENDTAB
  0
TABLE
  2
LTYPE
  5
5
330
0
100
AcDbSymbolTable
 70
     8
  0
LTYPE
  5
14
330
5
100
AcDbSymbolTableRecord
100
AcDbLinetypeTableRecord
  2
ByBlock
 70
     0
  3

 72
    65
 73
     0
 40
0.0
  0
LTYPE
  5
15
330
5
100
AcDbSymbolTableRecord
100
AcDbLinetypeTableRecord
  2
ByLayer
 70
     0
  3

 72
    65
 73
     0
 40
0.0
  0
LTYPE
  5
16
330
5
100
AcDbSymbolTableRecord
100
AcDbLinetypeTableRecord
  2
Continuous
 70
     0
  3
Solid line
 72
    65
 73
     0
 40
0.0
  0
LTYPE
  5
2A
330
5
100
AcDbSymbolTableRecord
100
AcDbLinetypeTableRecord
  2
DASHED
 70
     0
  3
Dashed
 72
    65
 73
     2
 40
15.0
 49
7.0
 74
     0
 49
-8.0
 74
     0
  0
LTYPE
  5
2B
330
5
100
AcDbSymbolTableRecord
100
AcDbLinetypeTableRecord
  2
DOTTED
 70
     0
  3
Dotted
 72
    65
 73
     2
 40
1.0
 49
0.0
 74
     0
 49
-1.0
 74
     0
  0
LTYPE
  5
2C
330
5
100
AcDbSymbolTableRecord
100
AcDbLinetypeTableRecord
  2
DOT_CENTER
 70
     0
  3
Dot_Center
 72
    65
 73
     4
 40
14.0
 49
12.0
 74
     0
 49
-1.0
 74
     0
 49
0.0
 74
     0
 49
-1.0
 74
     0
  0
LTYPE
  5
2D
330
5
100
AcDbSymbolTableRecord
100
AcDbLinetypeTableRecord
  2
LONG_DASHED
 70
     0
  3
Long_Dashed
 72
    65
 73
     2
 40
15.0
 49
10.0
 74
     0
 49
-5.0
 74
     0
  0
LTYPE
  5
2E
330
5
100
AcDbSymbolTableRecord
100
AcDbLinetypeTableRecord
  2
DASH_CENTER
 70
     0
  3
Dash_Center
 72
    65
 73
     4
 40
14.0
 49
11.0
 74
     0
 49
-1.0
 74
     0
 49
1.0
 74
     0
 49
-1.0
 74
     0
  0
LTYPE
  5
2F
330
5
100
AcDbSymbolTableRecord
100
AcDbLinetypeTableRecord
  2
PHANTOM
 70
     0
  3
Phantom
 72
    65
 73
     6
 40
13.0
 49
10.0
 74
     0
 49
-1.0
 74
     0
 49
0.0
 74
     0
 49
-1.0
 74
     0
 49
0.0
 74
     0
 49
-1.0
 74
     0
  0
LTYPE
  5
30
330
5
100
AcDbSymbolTableRecord
100
AcDbLinetypeTableRecord
  2
CENTER_DASH_DASH
 70
     0
  3
Center_Dash_Dash
 72
    65
 73
     6
 40
14.0
 49
9.0
 74
     0
 49
-1.0
 74
     0
 49
1.0
 74
     0
 49
-1.0
 74
     0
 49
1.0
 74
     0
 49
-1.0
 74
     0
  0
ENDTAB
  0
TABLE
  2
LAYER
  5
2
330
0
100
AcDbSymbolTable
 70
     7
  0
LAYER
  5
10
330
2
100
AcDbSymbolTableRecord
100
AcDbLayerTableRecord
  2
0
 70
     0
 62
     7
  6
Continuous
370
    -3
390
F
  0
LAYER
  5
31
330
2
100
AcDbSymbolTableRecord
100
AcDbLayerTableRecord
  2
1
 70
     0
 62
     7
  6
Continuous
370
    -3
390
F
  0
LAYER
  5
32
330
2
100
AcDbSymbolTableRecord
100
AcDbLayerTableRecord
  2
A_ACHSEN
 70
     0
 62
     7
  6
Continuous
370
    -3
390
F
  0
LAYER
  5
33
330
2
100
AcDbSymbolTableRecord
100
AcDbLayerTableRecord
  2
A_BEMASSUNGEN
 70
     0
 62
     7
  6
Continuous
370
    -3
390
F
  0
LAYER
  5
34
330
2
100
AcDbSymbolTableRecord
100
AcDbLayerTableRecord
  2
A_NOTIZEN_SYMB
 70
     0
 62
     7
  6
Continuous
370
    -3
390
F
  0
LAYER
  5
35
330
2
100
AcDbSymbolTableRecord
100
AcDbLayerTableRecord
  2
A_RUNDUNGEN
 70
     0
 62
     7
  6
Continuous
370
    -3
390
F
  0
LAYER
  5
36
330
2
100
AcDbSymbolTableRecord
100
AcDbLayerTableRecord
  2
DEFAULT_2
 70
     0
 62
     7
  6
Continuous
370
    -3
390
F
  0
ENDTAB
  0
TABLE
  2
STYLE
  5
3
330
0
100
AcDbSymbolTable
 70
     1
  0
STYLE
  5
11
330
3
100
AcDbSymbolTableRecord
100
AcDbTextStyleTableRecord
  2
Standard
 70
     0
 40
0.0
 41
1.0
 50
0.0
 71
     0
 42
0.2
  3
txt
  4

  0
ENDTAB
  0
TABLE
  2
VIEW
  5
6
330
0
100
AcDbSymbolTable
 70
     0
  0
ENDTAB
  0
TABLE
  2
UCS
  5
7
330
0
100
AcDbSymbolTable
 70
     0
  0
ENDTAB
  0
TABLE
  2
APPID
  5
9
330
0
100
AcDbSymbolTable
 70
     1
  0
APPID
  5
12
330
9
100
AcDbSymbolTableRecord
100
AcDbRegAppTableRecord
  2
ACAD
 70
     0
  0
ENDTAB
  0
TABLE
  2
DIMSTYLE
  5
A
330
0
100
AcDbSymbolTable
 70
     1
100
AcDbDimStyleTable
  0
DIMSTYLE
105
27
330
A
100
AcDbSymbolTableRecord
100
AcDbDimStyleTableRecord
  2
Standard
 70
     0
340
11
  0
ENDTAB
  0
TABLE
  2
BLOCK_RECORD
  5
1
330
0
100
AcDbSymbolTable
 70
     1
  0
BLOCK_RECORD
  5
1F
330
1
100
AcDbSymbolTableRecord
100
AcDbBlockTableRecord
  2
*Model_Space
340
22
  0
BLOCK_RECORD
  5
1B
330
1
100
AcDbSymbolTableRecord
100
AcDbBlockTableRecord
  2
*Paper_Space
340
1E
  0
BLOCK_RECORD
  5
23
330
1
100
AcDbSymbolTableRecord
100
AcDbBlockTableRecord
  2
*Paper_Space0
340
26
  0
ENDTAB
  0
ENDSEC
  0
SECTION
  2
BLOCKS
  0
BLOCK
  5
20
330
1F
100
AcDbEntity
  8
0
100
AcDbBlockBegin
  2
*Model_Space
 70
     0
 71
     0
 10
0.0
 20
0.0
 30
0.0
  3
*Model_Space
  1

  0
ENDBLK
  5
21
330
1F
100
AcDbEntity
  8
0
100
AcDbBlockEnd
  0
BLOCK
  5
1C
330
1B
100
AcDbEntity
 67
     1
  8
0
100
AcDbBlockBegin
  2
*Paper_Space
 70
     0
 71
     0
 10
0.0
 20
0.0
 30
0.0
  3
*Paper_Space
  1

  0
ENDBLK
  5
1D
330
1B
100
AcDbEntity
 67
     1
  8
0
100
AcDbBlockEnd
  0
BLOCK
  5
24
330
23
100
AcDbEntity
  8
0
100
AcDbBlockBegin
  2
*Paper_Space0
 70
     0
 71
     0
 10
0.0
 20
0.0
 30
0.0
  3
*Paper_Space0
  1

  0
ENDBLK
  5
25
330
23
100
AcDbEntity
  8
0
100
AcDbBlockEnd
  0
ENDSEC
  0
SECTION
  2
ENTITIES
  0
POINT
  5
37
330
1F
100
AcDbEntity
  8
A_BEMASSUNGEN
 62
     7
100
AcDbPoint
 10
228.580394091661
 20
185.8603847856
 30
0.0
  0
POINT
  5
38
330
1F
100
AcDbEntity
  8
A_BEMASSUNGEN
 62
     7
100
AcDbPoint
 10
258.580394091661
 20
166.8603847856
 30
0.0
  0
POINT
  5
39
330
1F
100
AcDbEntity
  8
A_BEMASSUNGEN
 62
     7
100
AcDbPoint
 10
228.580394091661
 20
213.8603847856
 30
0.0
  0
POINT
  5
3A
330
1F
100
AcDbEntity
  8
A_BEMASSUNGEN
 62
     7
100
AcDbPoint
 10
198.580394091661
 20
180.8603847856
 30
0.0
  0
POINT
  5
3B
330
1F
100
AcDbEntity
  8
A_BEMASSUNGEN
 62
     7
100
AcDbPoint
 10
198.580394091661
 20
166.8603847856
 30
0.0
  0
POINT
  5
3C
330
1F
100
AcDbEntity
  8
A_BEMASSUNGEN
 62
     7
100
AcDbPoint
 10
258.580394091661
 20
191.3603847856
 30
0.0
  0
POINT
  5
3D
330
1F
100
AcDbEntity
  8
A_BEMASSUNGEN
 62
     7
100
AcDbPoint
 10
258.580394091661
 20
181.8603847856
 30
0.0
  0
POINT
  5
3E
330
1F
100
AcDbEntity
  8
A_BEMASSUNGEN
 62
     7
100
AcDbPoint
 10
239.009464080061
 20
210.1100994377
 30
0.0
  0
POINT
  5
3F
330
1F
100
AcDbEntity
  8
A_BEMASSUNGEN
 62
     7
100
AcDbPoint
 10
234.095984031561
 20
204.6084893268
 30
0.0
  0
POINT
  5
40
330
1F
100
AcDbEntity
  8
A_BEMASSUNGEN
 62
     7
100
AcDbPoint
 10
241.770846188461
 20
209.4979157627
 30
0.0
  0
POINT
  5
41
330
1F
100
AcDbEntity
  8
A_BEMASSUNGEN
 62
     7
100
AcDbPoint
 10
249.080394091661
 20
181.8603847856
 30
0.0
  0
POINT
  5
42
330
1F
100
AcDbEntity
  8
A_BEMASSUNGEN
 62
     7
100
AcDbPoint
 10
282.6355008113797
 20
132.3337065269409
 30
0.0
  0
POINT
  5
43
330
1F
100
AcDbEntity
  8
A_BEMASSUNGEN
 62
     7
100
AcDbPoint
 10
297.3961961587797
 20
126.3337065269409
 30
0.0
  0
POINT
  5
44
330
1F
100
AcDbEntity
  8
A_BEMASSUNGEN
 62
     7
100
AcDbPoint
 10
269.3961961587796
 20
126.3337065269409
 30
0.0
  0
POINT
  5
45
330
1F
100
AcDbEntity
  8
A_BEMASSUNGEN
 62
     7
100
AcDbPoint
 10
269.3961961587796
 20
126.3337065269409
 30
0.0
  0
POINT
  5
46
330
1F
100
AcDbEntity
  8
A_BEMASSUNGEN
 62
     7
100
AcDbPoint
 10
265.3961961587797
 20
149.3337065269409
 30
0.0
  0
POINT
  5
47
330
1F
100
AcDbEntity
  8
A_BEMASSUNGEN
 62
     7
100
AcDbPoint
 10
265.3961961587797
 20
149.3337065269409
 30
0.0
  0
POINT
  5
48
330
1F
100
AcDbEntity
  8
A_BEMASSUNGEN
 62
     7
100
AcDbPoint
 10
269.3961961587796
 20
126.3337065269409
 30
0.0
  0
POINT
  5
49
330
1F
100
AcDbEntity
  8
A_BEMASSUNGEN
 62
     7
100
AcDbPoint
 10
276.4851595705845
 20
162.9766672578299
 30
0.0
  0
POINT
  5
4A
330
1F
100
AcDbEntity
  8
A_BEMASSUNGEN
 62
     7
100
AcDbPoint
 10
281.7023771070066
 20
169.8709425891416
 30
0.0
  0
POINT
  5
4B
330
1F
100
AcDbEntity
  8
A_BEMASSUNGEN
 62
     7
100
AcDbPoint
 10
252.5535692671095
 20
200.6507173059132
 30
0.0
  0
POINT
  5
4C
330
1F
100
AcDbEntity
  8
A_BEMASSUNGEN
 62
     7
100
AcDbPoint
 10
274.5636471878261
 20
171.8346019226111
 30
0.0
  0
LINE
  5
4D
330
1F
100
AcDbEntity
  8
1
  6
Continuous
 62
     7
100
AcDbLine
 10
261.535356036861
 20
208.8603847856
 30
0.0
 11
270.625432146461
 21
208.8603847856
 31
0.0
  0
LINE
  5
4E
330
1F
100
AcDbEntity
  8
A_RUNDUNGEN
  6
DASHED
 62
     2
100
AcDbLine
 10
247.672914424714
 20
200.2335243771137
 30
0.0
 11
251.0634118652843
 21
194.9115094454101
 31
0.0
  0
LINE
  5
4F
330
1F
100
AcDbEntity
  8
A_RUNDUNGEN
  6
Continuous
 62
     7
100
AcDbLine
 10
251.0634118652843
 20
194.9115094454101
 30
0.0
 11
251.388509177861
 21
194.4012088827
 31
0.0
  0
LINE
  5
50
330
1F
100
AcDbEntity
  8
0
  6
Continuous
 62
     7
100
AcDbLine
 10
213.580394091661
 20
180.8603847856
 30
0.0
 11
198.580394091661
 21
180.8603847856
 31
0.0
  0
LINE
  5
51
330
1F
100
AcDbEntity
  8
0
  6
Continuous
 62
     7
100
AcDbLine
 10
244.580394091661
 20
180.8603847856
 30
0.0
 11
213.580394091661
 21
180.8603847856
 31
0.0
  0
LINE
  5
52
330
1F
100
AcDbEntity
  8
0
  6
Continuous
 62
     7
100
AcDbLine
 10
258.580394091661
 20
213.8603847856
 30
0.0
 11
273.580394091661
 21
213.8603847856
 31
0.0
  0
LINE
  5
53
330
1F
100
AcDbEntity
  8
0
  6
Continuous
 62
     7
100
AcDbLine
 10
256.580394091661
 20
213.8603847856
 30
0.0
 11
258.580394091661
 21
213.8603847856
 31
0.0
  0
LINE
  5
54
330
1F
100
AcDbEntity
  8
0
  6
Continuous
 62
     7
100
AcDbLine
 10
236.080394091661
 20
213.8603847856
 30
0.0
 11
256.580394091661
 21
213.8603847856
 31
0.0
  0
LINE
  5
55
330
1F
100
AcDbEntity
  8
0
  6
Continuous
 62
     7
100
AcDbLine
 10
244.080394091661
 20
185.8603847856
 30
0.0
 11
244.580394091661
 21
185.8603847856
 31
0.0
  0
LINE
  5
56
330
1F
100
AcDbEntity
  8
0
  6
Continuous
 62
     7
100
AcDbLine
 10
236.080394091661
 20
185.8603847856
 30
0.0
 11
244.080394091661
 21
185.8603847856
 31
0.0
  0
LINE
  5
57
330
1F
100
AcDbEntity
  8
A_RUNDUNGEN
  6
Continuous
 62
     7
100
AcDbLine
 10
241.770846188461
 20
209.4979157627
 30
0.0
 11
247.672914424714
 21
200.2335243771137
 31
0.0
  0
LINE
  5
58
330
1F
100
AcDbEntity
  8
0
  6
Continuous
 62
     7
100
AcDbLine
 10
258.580394091661
 20
200.0202343205793
 30
0.0
 11
258.580394091661
 21
211.3603847856
 31
0.0
  0
LINE
  5
59
330
1F
100
AcDbEntity
  8
0
  6
DASHED
 62
     2
100
AcDbLine
 10
258.580394091661
 20
185.0573882032821
 30
0.0
 11
258.580394091661
 21
200.0202343205793
 31
0.0
  0
LINE
  5
5A
330
1F
100
AcDbEntity
  8
0
  6
Continuous
 62
     7
100
AcDbLine
 10
228.580394091661
 20
185.8603847856
 30
0.0
 11
236.080394091661
 21
185.8603847856
 31
0.0
  0
LINE
  5
5B
330
1F
100
AcDbEntity
  8
0
  6
Continuous
 62
     7
100
AcDbLine
 10
273.580394091661
 20
250.8603847856
 30
0.0
 11
213.580394091661
 21
250.8603847856
 31
0.0
  0
LINE
  5
5C
330
1F
100
AcDbEntity
  8
0
  6
Continuous
 62
     7
100
AcDbLine
 10
229.580394091661
 20
212.1187150348
 30
0.0
 11
236.080394091661
 21
213.8603847856
 31
0.0
  0
LINE
  5
5D
330
1F
100
AcDbEntity
  8
0
  6
Continuous
 62
     7
100
AcDbLine
 10
231.580394091661
 20
210.3167912462
 30
0.0
 11
239.580394091661
 21
212.4603847856
 31
0.0
  0
LINE
  5
5E
330
1F
100
AcDbEntity
  8
0
  6
Continuous
 62
     7
100
AcDbLine
 10
273.580394091661
 20
213.8603847856
 30
0.0
 11
273.580394091661
 21
250.8603847856
 31
0.0
  0
LINE
  5
5F
330
1F
100
AcDbEntity
  8
0
  6
Continuous
 62
     7
100
AcDbLine
 10
273.580394091661
 20
211.6267321386
 30
0.0
 11
273.580394091661
 21
213.8603847856
 31
0.0
  0
LINE
  5
60
330
1F
100
AcDbEntity
  8
0
  6
Continuous
 62
     7
100
AcDbLine
 10
272.580394091661
 20
212.7603847856
 30
0.0
 11
272.580394091661
 21
212.0603847856
 31
0.0
  0
LINE
  5
61
330
1F
100
AcDbEntity
  8
0
  6
Continuous
 62
     7
100
AcDbLine
 10
228.580394091661
 20
213.8603847856
 30
0.0
 11
236.080394091661
 21
213.8603847856
 31
0.0
  0
LINE
  5
62
330
1F
100
AcDbEntity
  8
0
  6
Continuous
 62
     7
100
AcDbLine
 10
259.580394091661
 20
212.7603847856
 30
0.0
 11
272.580394091661
 21
212.7603847856
 31
0.0
  0
LINE
  5
63
330
1F
100
AcDbEntity
  8
0
  6
Continuous
 62
     7
100
AcDbLine
 10
270.230394091661
 20
209.8603847856
 30
0.0
 11
261.930394091661
 21
209.8603847856
 31
0.0
  0
LINE
  5
64
330
1F
100
AcDbEntity
  8
0
  6
Continuous
 62
     7
100
AcDbLine
 10
239.580394091661
 20
212.4603847856
 30
0.0
 11
253.580394091661
 21
212.6603847856
 31
0.0
  0
LINE
  5
65
330
1F
100
AcDbEntity
  8
0
  6
Continuous
 62
     7
100
AcDbLine
 10
270.625432146461
 20
208.8603847856
 30
0.0
 11
273.580394091661
 21
211.6267321386
 31
0.0
  0
LINE
  5
66
330
1F
100
AcDbEntity
  8
0
  6
Continuous
 62
     7
100
AcDbLine
 10
272.580394091661
 20
212.0603847856
 30
0.0
 11
270.230394091661
 21
209.8603847856
 31
0.0
  0
LINE
  5
67
330
1F
100
AcDbEntity
  8
0
  6
Continuous
 62
     7
100
AcDbLine
 10
261.930394091661
 20
209.8603847856
 30
0.0
 11
259.580394091661
 21
212.0603847856
 31
0.0
  0
LINE
  5
68
330
1F
100
AcDbEntity
  8
0
  6
Continuous
 62
     7
100
AcDbLine
 10
258.580394091661
 20
211.6267321386
 30
0.0
 11
261.535356036861
 21
208.8603847856
 31
0.0
  0
LINE
  5
69
330
1F
100
AcDbEntity
  8
0
  6
Continuous
 62
     7
100
AcDbLine
 10
253.580394091661
 20
212.6603847856
 30
0.0
 11
256.580394091661
 21
213.5603847856
 31
0.0
  0
LINE
  5
6A
330
1F
100
AcDbEntity
  8
0
  6
Continuous
 62
     7
100
AcDbLine
 10
259.580394091661
 20
212.0603847856
 30
0.0
 11
259.580394091661
 21
212.7603847856
 31
0.0
  0
LINE
  5
6B
330
1F
100
AcDbEntity
  8
0
  6
Continuous
 62
     7
100
AcDbLine
 10
258.580394091661
 20
211.3603847856
 30
0.0
 11
258.580394091661
 21
213.8603847856
 31
0.0
  0
LINE
  5
6C
330
1F
100
AcDbEntity
  8
0
  6
Continuous
 62
     7
100
AcDbLine
 10
258.580394091661
 20
166.8603847856
 30
0.0
 11
258.580394091661
 21
181.8603847856
 31
0.0
  0
LINE
  5
6D
330
1F
100
AcDbEntity
  8
0
  6
Continuous
 62
     7
100
AcDbLine
 10
256.580394091661
 20
213.8603847856
 30
0.0
 11
256.580394091661
 21
213.5603847856
 31
0.0
  0
LINE
  5
6E
330
1F
100
AcDbEntity
  8
0
  6
Continuous
 62
     7
100
AcDbLine
 10
244.080394091661
 20
187.1603847856
 30
0.0
 11
239.580394091661
 21
187.2389325778
 31
0.0
  0
LINE
  5
6F
330
1F
100
AcDbEntity
  8
0
  6
Continuous
 62
     7
100
AcDbLine
 10
244.580394091661
 20
180.8603847856
 30
0.0
 11
244.580394091661
 21
185.8603847856
 31
0.0
  0
LINE
  5
70
330
1F
100
AcDbEntity
  8
0
  6
Continuous
 62
     7
100
AcDbLine
 10
244.080394091661
 20
185.8603847856
 30
0.0
 11
244.080394091661
 21
187.1603847856
 31
0.0
  0
LINE
  5
71
330
1F
100
AcDbEntity
  8
0
  6
Continuous
 62
     7
100
AcDbLine
 10
239.580394091661
 20
187.2389325778
 30
0.0
 11
231.580394091661
 21
189.3825261173
 31
0.0
  0
LINE
  5
72
330
1F
100
AcDbEntity
  8
0
  6
Continuous
 62
     7
100
AcDbLine
 10
236.080394091661
 20
185.8603847856
 30
0.0
 11
229.580394091661
 21
187.6020545365
 31
0.0
  0
LINE
  5
73
330
1F
100
AcDbEntity
  8
0
  6
Continuous
 62
     7
100
AcDbLine
 10
258.580394091661
 20
180.8603847856
 30
0.0
 11
244.580394091661
 21
180.8603847856
 31
0.0
  0
LINE
  5
74
330
1F
100
AcDbEntity
  8
0
  6
Continuous
 62
     7
100
AcDbLine
 10
231.580394091661
 20
189.3825261173
 30
0.0
 11
231.580394091661
 21
210.3167912462
 31
0.0
  0
LINE
  5
75
330
1F
100
AcDbEntity
  8
0
  6
Continuous
 62
     7
100
AcDbLine
 10
229.580394091661
 20
212.1187150348
 30
0.0
 11
229.580394091661
 21
187.6020545365
 31
0.0
  0
LINE
  5
76
330
1F
100
AcDbEntity
  8
0
  6
Continuous
 62
     7
100
AcDbLine
 10
228.580394091661
 20
185.8603847856
 30
0.0
 11
228.580394091661
 21
213.8603847856
 31
0.0
  0
LINE
  5
77
330
1F
100
AcDbEntity
  8
0
  6
Continuous
 62
     7
100
AcDbLine
 10
198.580394091661
 20
166.8603847856
 30
0.0
 11
258.580394091661
 21
166.8603847856
 31
0.0
  0
LINE
  5
78
330
1F
100
AcDbEntity
  8
0
  6
Continuous
 62
     7
100
AcDbLine
 10
213.580394091661
 20
250.8603847856
 30
0.0
 11
213.580394091661
 21
180.8603847856
 31
0.0
  0
LINE
  5
79
330
1F
100
AcDbEntity
  8
0
  6
Continuous
 62
     7
100
AcDbLine
 10
198.580394091661
 20
180.8603847856
 30
0.0
 11
198.580394091661
 21
166.8603847856
 31
0.0
  0
LINE
  5
7A
330
1F
100
AcDbEntity
  8
0
  6
Continuous
 62
     7
100
AcDbLine
 10
241.080394091661
 20
211.3603847856
 30
0.0
 11
258.580394091661
 21
211.3603847856
 31
0.0
  0
LINE
  5
7B
330
1F
100
AcDbEntity
  8
0
  6
Continuous
 62
     7
100
AcDbLine
 10
232.080394091661
 20
208.8603847856
 30
0.0
 11
241.080394091661
 21
211.3603847856
 31
0.0
  0
LINE
  5
7C
330
1F
100
AcDbEntity
  8
0
  6
Continuous
 62
     7
100
AcDbLine
 10
258.580394091661
 20
181.8603847856
 30
0.0
 11
258.580394091661
 21
185.0573882032821
 31
0.0
  0
LINE
  5
7D
330
1F
100
AcDbEntity
  8
A_RUNDUNGEN
  6
Continuous
 62
     7
100
AcDbLine
 10
247.580394091661
 20
184.3603847856
 30
0.0
 11
247.580394091661
 21
181.8603847856
 31
0.0
  0
LINE
  5
7E
330
1F
100
AcDbEntity
  8
0
  6
Continuous
 62
     7
100
AcDbLine
 10
241.080394091661
 20
188.3603847856
 30
0.0
 11
243.580394091661
 21
188.3603847856
 31
0.0
  0
LINE
  5
7F
330
1F
100
AcDbEntity
  8
0
  6
Continuous
 62
     7
100
AcDbLine
 10
241.080394091661
 20
188.3603847856
 30
0.0
 11
232.080394091661
 21
190.8603847856
 31
0.0
  0
LINE
  5
80
330
1F
100
AcDbEntity
  8
0
  6
Continuous
 62
     7
100
AcDbLine
 10
232.080394091661
 20
190.8603847856
 30
0.0
 11
232.080394091661
 21
208.8603847856
 31
0.0
  0
LINE
  5
81
330
1F
100
AcDbEntity
  8
0
  6
Continuous
 62
     7
100
AcDbLine
 10
247.580394091661
 20
181.8603847856
 30
0.0
 11
258.580394091661
 21
181.8603847856
 31
0.0
  0
LINE
  5
82
330
1F
100
AcDbEntity
  8
1
  6
DOT_CENTER
 62
     2
100
AcDbLine
 10
236.4220833025832
 20
209.4255182851365
 30
0.0
 11
249.2123626527462
 21
189.3488012616444
 31
0.0
  0
LINE
  5
83
330
1F
100
AcDbEntity
  8
A_ACHSEN
  6
Continuous
 62
     7
100
AcDbLine
 10
234.095984031561
 20
204.6084893268
 30
0.0
 11
243.713647020961
 21
189.5117824467
 31
0.0
  0
LINE
  5
84
330
1F
100
AcDbEntity
  8
A_ACHSEN
  6
Continuous
 62
     7
100
AcDbLine
 10
239.009464080061
 20
210.1100994377
 30
0.0
 11
234.708167706461
 21
207.3698714351
 31
0.0
  0
LINE
  5
85
330
1F
100
AcDbEntity
  8
A_ACHSEN
  6
Continuous
 62
     7
100
AcDbLine
 10
246.475029129261
 20
188.8995987718
 30
0.0
 11
250.776325502861
 21
191.6398267744
 31
0.0
  0
LINE
  5
86
330
1F
100
AcDbEntity
  8
0
  6
Continuous
 62
     7
100
AcDbLine
 10
285.3718376438666
 20
155.4259857868478
 30
0.0
 11
289.522614511515
 21
160.8944323603998
 31
0.0
  0
LINE
  5
87
330
1F
100
AcDbEntity
  8
0
  6
Continuous
 62
     7
100
AcDbLine
 10
284.0862034108989
 20
163.656156403033
 30
0.0
 11
281.2162040000692
 21
159.8750718146285
 31
0.0
  0
LINE
  5
88
330
1F
100
AcDbEntity
  8
0
  6
DASHED
 62
     2
100
AcDbLine
 10
284.62750472327
 20
164.8297369432762
 30
0.0
 11
289.2180257844419
 21
168.5206106367946
 31
0.0
  0
LINE
  5
89
330
1F
100
AcDbEntity
  8
A_RUNDUNGEN
  6
Continuous
 62
     7
100
AcDbLine
 10
281.5683447387862
 20
177.3828514255906
 30
0.0
 11
289.2180257844419
 21
168.5206106367946
 31
0.0
  0
LINE
  5
8A
330
1F
100
AcDbEntity
  8
0
  6
Continuous
 62
     7
100
AcDbLine
 10
281.5683447387862
 20
177.3828514255906
 30
0.0
 11
273.3710568265236
 21
186.2351171201126
 31
0.0
  0
LINE
  5
8B
330
1F
100
AcDbEntity
  8
0
  6
Continuous
 62
     7
100
AcDbLine
 10
275.3897925174602
 20
177.7263517143039
 30
0.0
 11
279.7382168647337
 21
173.0304805814855
 31
0.0
  0
LINE
  5
8C
330
1F
100
AcDbEntity
  8
0
  6
Continuous
 62
     7
100
AcDbLine
 10
279.7219302966614
 20
172.6065292308562
 30
0.0
 11
279.6485573102111
 21
172.53858510043
 31
0.0
  0
LINE
  5
8D
330
1F
100
AcDbEntity
  8
0
  6
Continuous
 62
     7
100
AcDbLine
 10
279.6322707421386
 20
172.1146337498007
 30
0.0
 11
283.8978032502924
 21
167.5082776604517
 31
0.0
  0
LINE
  5
8E
330
1F
100
AcDbEntity
  8
0
  6
Continuous
 62
     7
100
AcDbLine
 10
272.8377452080279
 20
179.4520538745944
 30
0.0
 11
274.4685168297511
 21
177.6909807200226
 31
0.0
  0
LINE
  5
8F
330
1F
100
AcDbEntity
  8
0
  6
Continuous
 62
     7
100
AcDbLine
 10
262.619260715729
 20
186.0716208831789
 30
0.0
 11
265.5068862588404
 21
182.9532689590417
 31
0.0
  0
LINE
  5
90
330
1F
100
AcDbEntity
  8
0
  6
Continuous
 62
     7
100
AcDbLine
 10
274.8924681803804
 20
177.6746941519502
 30
0.0
 11
274.9658411668308
 21
177.7426382823763
 31
0.0
  0
LINE
  5
91
330
1F
100
AcDbEntity
  8
0
  6
Continuous
 62
     7
100
AcDbLine
 10
256.6378799608378
 20
183.2586003953371
 30
0.0
 11
259.7929183782002
 21
186.1801980036616
 31
0.0
  0
LINE
  5
92
330
1F
100
AcDbEntity
  8
0
  6
Continuous
 62
     7
100
AcDbLine
 10
250.8897731547357
 20
190.2018898279938
 30
0.0
 11
250.5229082224842
 21
189.862169175863
 31
0.0
  0
LINE
  5
93
330
1F
100
AcDbEntity
  8
0
  6
Continuous
 62
     7
100
AcDbLine
 10
289.2854053372426
 20
168.4425506735365
 30
0.0
 11
289.2180257844419
 21
168.5206106367946
 31
0.0
  0
LINE
  5
94
330
1F
100
AcDbEntity
  8
1
  6
DOT_CENTER
 62
     2
100
AcDbLine
 10
273.9316247112005
 20
181.2143664288128
 30
0.0
 11
264.4194464515093
 21
191.4865845318856
 31
0.0
  0
LINE
  5
95
330
1F
100
AcDbEntity
  8
1
  6
DOT_CENTER
 62
     2
100
AcDbLine
 10
274.3116446328912
 20
191.1065646101949
 30
0.0
 11
264.0394265298185
 21
181.5943863505036
 31
0.0
  0
LINE
  5
96
330
1F
100
AcDbEntity
  8
1
  6
DOT_CENTER
 62
     2
100
AcDbLine
 10
257.9627905041477
 20
181.8278271595565
 30
0.0
 11
249.1979976791743
 21
191.2929424116435
 31
0.0
  0
LINE
  5
97
330
1F
100
AcDbEntity
  8
1
  6
DOT_CENTER
 62
     2
100
AcDbLine
 10
258.3129517177046
 20
190.9427811980868
 30
0.0
 11
248.8478364656174
 21
182.1779883731132
 31
0.0
  0
LINE
  5
98
330
1F
100
AcDbEntity
  8
1
  6
DOT_CENTER
 62
     2
100
AcDbLine
 10
284.7220870402522
 20
148.9565623695788
 30
0.0
 11
275.2099087805909
 21
159.228780472619
 31
0.0
  0
LINE
  5
99
330
1F
100
AcDbEntity
  8
1
  6
DOT_CENTER
 62
     2
100
AcDbLine
 10
285.1021069619417
 20
158.8487605509294
 30
0.0
 11
274.8298888589015
 21
149.3365822912682
 31
0.0
  0
LINE
  5
9A
330
1F
100
AcDbEntity
  8
1
  6
Continuous
 62
     7
100
AcDbLine
 10
265.3961961587796
 20
169.333706526941
 30
0.0
 11
265.4961961587796
 21
169.3337065269409
 31
0.0
  0
LINE
  5
9B
330
1F
100
AcDbEntity
  8
A_RUNDUNGEN
  6
DASHED
 62
     2
100
AcDbLine
 10
275.2572457994958
 20
152.4111085891325
 30
0.0
 11
275.6207725730982
 21
156.5663360644736
 31
0.0
  0
LINE
  5
9C
330
1F
100
AcDbEntity
  8
A_RUNDUNGEN
  6
Continuous
 62
     7
100
AcDbLine
 10
275.6207725730982
 20
156.5663360644736
 30
0.0
 11
276.0189911258598
 21
161.1181016888531
 31
0.0
  0
LINE
  5
9D
330
1F
100
AcDbEntity
  8
A_RUNDUNGEN
  6
DASHED
 62
     2
100
AcDbLine
 10
276.0189911258598
 20
161.1181016888531
 30
0.0
 11
276.1510048055796
 21
162.627060337641
 31
0.0
  0
LINE
  5
9E
330
1F
100
AcDbEntity
  8
A_ACHSEN
  6
DASHED
 62
     2
100
AcDbLine
 10
281.1747460910573
 20
164.1951895508998
 30
0.0
 11
278.3177019855796
 21
164.4451426598409
 31
0.0
  0
LINE
  5
9F
330
1F
100
AcDbEntity
  8
A_RUNDUNGEN
  6
Continuous
 62
     7
100
AcDbLine
 10
284.3248074526266
 20
151.6430225942705
 30
0.0
 11
282.7115824942347
 21
133.2033445352604
 31
0.0
  0
LINE
  5
A0
330
1F
100
AcDbEntity
  8
1
  6
DOT_CENTER
 62
     2
100
AcDbLine
 10
261.3961961587797
 20
109.3337065269408
 30
0.0
 11
254.7905728794999
 21
109.3337065269409
 31
0.0
  0
LINE
  5
A1
330
1F
100
AcDbEntity
  8
1
  6
DOT_CENTER
 62
     2
100
AcDbLine
 10
303.3961961587797
 20
109.3337065269409
 30
0.0
 11
307.9289026502457
 21
109.333706526941
 31
0.0
  0
LINE
  5
A2
330
1F
100
AcDbEntity
  8
0
  6
Continuous
 62
     7
100
AcDbLine
 10
269.3961961587796
 20
136.8337065269409
 30
0.0
 11
269.3961961587797
 21
149.3337065269409
 31
0.0
  0
LINE
  5
A3
330
1F
100
AcDbEntity
  8
0
  6
Continuous
 62
     7
100
AcDbLine
 10
269.3961961587797
 20
149.3337065269409
 30
0.0
 11
270.8961961587796
 21
149.333706526941
 31
0.0
  0
LINE
  5
A4
330
1F
100
AcDbEntity
  8
0
  6
Continuous
 62
     7
100
AcDbLine
 10
297.3961961587796
 20
161.833706526941
 30
0.0
 11
297.3961961587795
 21
169.3337065269411
 31
0.0
  0
LINE
  5
A5
330
1F
100
AcDbEntity
  8
0
  6
Continuous
 62
     7
100
AcDbLine
 10
297.3961961587797
 20
136.8337065269409
 30
0.0
 11
297.3961961587796
 21
161.833706526941
 31
0.0
  0
LINE
  5
A6
330
1F
100
AcDbEntity
  8
A_RUNDUNGEN
  6
Continuous
 62
     7
100
AcDbLine
 10
273.6828362303594
 20
134.4151028636462
 30
0.0
 11
275.2572457994958
 21
152.4111085891325
 31
0.0
  0
LINE
  5
A7
330
1F
100
AcDbEntity
  8
A_RUNDUNGEN
  6
Continuous
 62
     7
100
AcDbLine
 10
282.7115824942347
 20
133.2033445352604
 30
0.0
 11
282.6355008112844
 21
132.3337065269409
 31
0.0
  0
LINE
  5
A8
330
1F
100
AcDbEntity
  8
0
  6
Continuous
 62
     7
100
AcDbLine
 10
271.1961961587796
 20
157.3337065269409
 30
0.0
 11
271.1961961587797
 21
140.3337065269409
 31
0.0
  0
LINE
  5
A9
330
1F
100
AcDbEntity
  8
0
  6
Continuous
 62
     7
100
AcDbLine
 10
270.1961961587797
 20
158.3337065269409
 30
0.0
 11
265.4961961587796
 21
158.3337065269409
 31
0.0
  0
LINE
  5
AA
330
1F
100
AcDbEntity
  8
1
  6
Continuous
 62
     7
100
AcDbLine
 10
297.3961961587795
 20
169.3337065269411
 30
0.0
 11
288.349139684845
 21
169.333706526941
 31
0.0
  0
LINE
  5
AB
330
1F
100
AcDbEntity
  8
0
  6
DASHED
 62
     2
100
AcDbLine
 10
271.98754173687
 20
169.333706526941
 30
0.0
 11
288.349139684845
 21
169.333706526941
 31
0.0
  0
LINE
  5
AC
330
1F
100
AcDbEntity
  8
0
  6
Continuous
 62
     7
100
AcDbLine
 10
295.9961961587796
 20
169.3337065269411
 30
0.0
 11
295.9961961587797
 21
149.3337065269409
 31
0.0
  0
LINE
  5
AD
330
1F
100
AcDbEntity
  8
A_ACHSEN
  6
Continuous
 62
     7
100
AcDbLine
 10
273.5007419167844
 20
132.3337065269409
 30
0.0
 11
272.6961961587798
 21
132.3337065269409
 31
0.0
  0
LINE
  5
AE
330
1F
100
AcDbEntity
  8
A_ACHSEN
  6
Continuous
 62
     7
100
AcDbLine
 10
291.6961961587797
 20
132.3337065269409
 30
0.0
 11
282.6355008112844
 21
132.3337065269409
 31
0.0
  0
LINE
  5
AF
330
1F
100
AcDbEntity
  8
A_RUNDUNGEN
  6
Continuous
 62
     7
100
AcDbLine
 10
274.0409221799797
 20
132.771149844541
 30
0.0
 11
282.1718614157797
 21
132.771149844541
 31
0.0
  0
LINE
  5
B0
330
1F
100
AcDbEntity
  8
0
  6
Continuous
 62
     7
100
AcDbLine
 10
291.6961961587797
 20
132.3337065269409
 30
0.0
 11
293.6961961587796
 21
136.6227203679409
 31
0.0
  0
LINE
  5
B1
330
1F
100
AcDbEntity
  8
0
  6
Continuous
 62
     7
100
AcDbLine
 10
293.6961961587796
 20
136.6227203679409
 30
0.0
 11
293.6961961587798
 21
147.333706526941
 31
0.0
  0
LINE
  5
B2
330
1F
100
AcDbEntity
  8
A_RUNDUNGEN
  6
DASHED
 62
     2
100
AcDbLine
 10
285.2163781729797
 20
161.8339615359409
 30
0.0
 11
284.3248074526266
 21
151.6430225942705
 31
0.0
  0
LINE
  5
B3
330
1F
100
AcDbEntity
  8
0
  6
Continuous
 62
     7
100
AcDbLine
 10
295.6961961587797
 20
149.333706526941
 30
0.0
 11
295.9961961587797
 21
149.3337065269409
 31
0.0
  0
LINE
  5
B4
330
1F
100
AcDbEntity
  8
A_RUNDUNGEN
  6
Continuous
 62
     7
100
AcDbLine
 10
273.5007419167844
 20
132.3337065269409
 30
0.0
 11
273.6828362303594
 21
134.4151028636462
 31
0.0
  0
LINE
  5
B5
330
1F
100
AcDbEntity
  8
0
  6
Continuous
 62
     7
100
AcDbLine
 10
271.1961961587797
 20
140.3337065269409
 30
0.0
 11
272.6961961587798
 21
132.3337065269409
 31
0.0
  0
LINE
  5
B6
330
1F
100
AcDbEntity
  8
A_ACHSEN
  6
Continuous
 62
     7
100
AcDbLine
 10
283.3982958508796
 20
164.0006587159409
 30
0.0
 11
281.1747460910573
 21
164.1951895508998
 31
0.0
  0
LINE
  5
B7
330
1F
100
AcDbEntity
  8
0
  6
Continuous
 62
     7
100
AcDbLine
 10
265.4961961587796
 20
158.3337065269409
 30
0.0
 11
265.4961961587796
 21
169.3337065269409
 31
0.0
  0
LINE
  5
B8
330
1F
100
AcDbEntity
  8
0
  6
Continuous
 62
     7
100
AcDbLine
 10
265.4961961587796
 20
169.3337065269409
 30
0.0
 11
271.98754173687
 21
169.333706526941
 31
0.0
  0
LINE
  5
B9
330
1F
100
AcDbEntity
  8
1
  6
DOT_CENTER
 62
     2
100
AcDbLine
 10
280.9847236338385
 20
165.6714047827591
 30
0.0
 11
277.9191352580669
 21
130.6307476066788
 31
0.0
  0
LINE
  5
BA
330
1F
100
AcDbEntity
  8
0
  6
Continuous
 62
     7
100
AcDbLine
 10
261.3961961587797
 20
169.333706526941
 30
0.0
 11
265.3961961587796
 21
169.333706526941
 31
0.0
  0
LINE
  5
BB
330
1F
100
AcDbEntity
  8
0
  6
Continuous
 62
     7
100
AcDbLine
 10
303.3961961587796
 20
169.3337065269411
 30
0.0
 11
303.3961961587797
 21
109.3337065269409
 31
0.0
  0
LINE
  5
BC
330
1F
100
AcDbEntity
  8
0
  6
DOT_CENTER
 62
     2
100
AcDbLine
 10
303.3961961587797
 20
109.3337065269409
 30
0.0
 11
261.3961961587797
 21
109.3337065269408
 31
0.0
  0
LINE
  5
BD
330
1F
100
AcDbEntity
  8
0
  6
Continuous
 62
     7
100
AcDbLine
 10
261.3961961587797
 20
109.3337065269408
 30
0.0
 11
261.3961961587797
 21
169.333706526941
 31
0.0
  0
LINE
  5
BE
330
1F
100
AcDbEntity
  8
0
  6
Continuous
 62
     7
100
AcDbLine
 10
269.3961961587796
 20
126.3337065269409
 30
0.0
 11
297.3961961587797
 21
126.3337065269409
 31
0.0
  0
LINE
  5
BF
330
1F
100
AcDbEntity
  8
0
  6
Continuous
 62
     7
100
AcDbLine
 10
272.1055346125797
 20
126.833706526941
 30
0.0
 11
294.6868577050798
 21
126.833706526941
 31
0.0
  0
LINE
  5
C0
330
1F
100
AcDbEntity
  8
0
  6
Continuous
 62
     7
100
AcDbLine
 10
272.6266030158797
 20
128.1337065269409
 30
0.0
 11
293.2697864446797
 21
128.1337065269409
 31
0.0
  0
LINE
  5
C1
330
1F
100
AcDbEntity
  8
0
  6
Continuous
 62
     7
100
AcDbLine
 10
265.3961961587797
 20
149.3337065269409
 30
0.0
 11
269.3961961587797
 21
149.3337065269409
 31
0.0
  0
LINE
  5
C2
330
1F
100
AcDbEntity
  8
0
  6
Continuous
 62
     7
100
AcDbLine
 10
293.2697864446797
 20
128.1337065269409
 30
0.0
 11
295.7697864446795
 21
139.133706526941
 31
0.0
  0
LINE
  5
C3
330
1F
100
AcDbEntity
  8
0
  6
Continuous
 62
     7
100
AcDbLine
 10
296.1722598081797
 20
128.1249468755409
 30
0.0
 11
297.3961961587797
 21
136.8337065269409
 31
0.0
  0
LINE
  5
C4
330
1F
100
AcDbEntity
  8
0
  6
Continuous
 62
     7
100
AcDbLine
 10
269.3961961587796
 20
126.3337065269409
 30
0.0
 11
269.3961961587796
 21
136.8337065269409
 31
0.0
  0
LINE
  5
C5
330
1F
100
AcDbEntity
  8
0
  6
Continuous
 62
     7
100
AcDbLine
 10
270.8961961587796
 20
149.333706526941
 30
0.0
 11
271.1266030158797
 21
136.1337065269409
 31
0.0
  0
LINE
  5
C6
330
1F
100
AcDbEntity
  8
0
  6
Continuous
 62
     7
100
AcDbLine
 10
269.3961961587796
 20
136.8337065269409
 30
0.0
 11
270.6201325094798
 21
128.1249468755409
 31
0.0
  0
LINE
  5
C7
330
1F
100
AcDbEntity
  8
0
  6
Continuous
 62
     7
100
AcDbLine
 10
271.1266030158797
 20
136.1337065269409
 30
0.0
 11
272.6266030158797
 21
128.1337065269409
 31
0.0
  0
LINE
  5
C8
330
1F
100
AcDbEntity
  8
0
  6
Continuous
 62
     7
100
AcDbLine
 10
265.3961961587797
 20
149.3337065269409
 30
0.0
 11
265.3961961587796
 21
169.333706526941
 31
0.0
  0
LINE
  5
C9
330
1F
100
AcDbEntity
  8
0
  6
Continuous
 62
     7
100
AcDbLine
 10
297.3961961587797
 20
126.3337065269409
 30
0.0
 11
297.3961961587797
 21
136.8337065269409
 31
0.0
  0
LINE
  5
CA
330
1F
100
AcDbEntity
  8
0
  6
Continuous
 62
     7
100
AcDbLine
 10
297.3961961587795
 20
169.3337065269411
 30
0.0
 11
303.3961961587796
 21
169.3337065269411
 31
0.0
  0
LINE
  5
CB
330
1F
100
AcDbEntity
  8
0
  6
Continuous
 62
     7
100
AcDbLine
 10
295.7697864446795
 20
139.133706526941
 30
0.0
 11
296.0961961587797
 21
157.833706526941
 31
0.0
  0
LINE
  5
CC
330
1F
100
AcDbEntity
  8
0
  6
Continuous
 62
     7
100
AcDbLine
 10
296.0961961587797
 20
157.833706526941
 30
0.0
 11
296.8961961587796
 21
161.8337065269409
 31
0.0
  0
LINE
  5
CD
330
1F
100
AcDbEntity
  8
0
  6
Continuous
 62
     7
100
AcDbLine
 10
296.8961961587796
 20
161.8337065269409
 30
0.0
 11
297.3961961587796
 21
161.833706526941
 31
0.0
  0
LINE
  5
CE
330
1F
100
AcDbEntity
  8
0
  6
Continuous
 62
     7
100
AcDbLine
 10
264.6184157854048
 20
193.7729603424758
 30
0.0
 11
263.1842987579608
 21
196.7069014273403
 31
0.0
  0
LINE
  5
CF
330
1F
100
AcDbEntity
  8
0
  6
Continuous
 62
     7
100
AcDbLine
 10
275.8561023962703
 20
183.6108940772161
 30
0.0
 11
274.0348488633809
 21
187.8912155515782
 31
0.0
  0
LINE
  5
D0
330
1F
100
AcDbEntity
  8
0
  6
DASHED
 62
     2
100
AcDbLine
 10
258.9486854409298
 20
194.0435531049412
 30
0.0
 11
264.8475695466453
 21
183.8467362761135
 31
0.0
  0
LINE
  5
D1
330
1F
100
AcDbEntity
  8
A_RUNDUNGEN
  6
Continuous
 62
     7
100
AcDbLine
 10
271.5649274095485
 20
159.5801399630824
 30
0.0
 11
278.1396833393698
 21
161.8503641045375
 31
0.0
  0
LINE
  5
D2
330
1F
100
AcDbEntity
  8
0
  6
Continuous
 62
     7
100
AcDbLine
 10
251.2471846158123
 20
200.6438886785995
 30
0.0
 11
244.579680708016
 21
199.8783881882922
 31
0.0
  0
LINE
  5
D3
330
1F
100
AcDbEntity
  8
A_RUNDUNGEN
  6
Continuous
 62
     7
100
AcDbLine
 10
252.5535692671095
 20
200.6507173059132
 30
0.0
 11
258.4158247942083
 21
200.0396884041577
 31
0.0
  0
LINE
  5
D4
330
1F
100
AcDbEntity
  8
0
  6
DASHED
 62
     2
100
AcDbLine
 10
281.7023771070066
 20
169.8709425891416
 30
0.0
 11
275.8561023962703
 21
183.6108940772161
 31
0.0
  0
LINE
  5
D5
330
1F
100
AcDbEntity
  8
A_RUNDUNGEN
  6
Continuous
 62
     7
100
AcDbLine
 10
273.58261082496
 20
169.7982555219427
 30
0.0
 11
273.6729737459091
 21
169.8294573013855
 31
0.0
  0
LINE
  5
D6
330
1F
100
AcDbEntity
  8
0
  6
Continuous
 62
     7
100
AcDbLine
 10
273.58261082496
 20
169.7982555219427
 30
0.0
 11
268.6274649080107
 21
168.0872730907994
 31
0.0
  0
LINE
  5
D7
330
1F
100
AcDbEntity
  8
0
  6
DASHED
 62
     2
100
AcDbLine
 10
270.605558907163
 20
190.4241756764419
 30
0.0
 11
267.1244175700982
 21
190.7870186057905
 31
0.0
  0
LINE
  5
D8
330
1F
100
AcDbEntity
  8
0
  6
Continuous
 62
     7
100
AcDbLine
 10
272.2811193945308
 20
177.199013056528
 30
0.0
 11
274.5636471878261
 21
171.8346019226111
 31
0.0
  0
LINE
  5
D9
330
1F
100
AcDbEntity
  8
0
  6
DASHED
 62
     2
100
AcDbLine
 10
265.5349262488771
 20
191.8979475980263
 30
0.0
 11
264.6184157854048
 21
193.7729603424758
 31
0.0
  0
LINE
  5
DA
330
1F
100
AcDbEntity
  8
A_RUNDUNGEN
  6
Continuous
 62
     7
100
AcDbLine
 10
273.58261082496
 20
169.7982555219427
 30
0.0
 11
276.4851595705845
 21
162.9766672578299
 31
0.0
  0
LINE
  5
DB
330
1F
100
AcDbEntity
  8
0
  6
Continuous
 62
     7
100
AcDbLine
 10
258.8245996664613
 20
194.2580478959293
 30
0.0
 11
258.9486854409298
 21
194.0435531049412
 31
0.0
  0
LINE
  5
DC
330
1F
100
AcDbEntity
  8
A_RUNDUNGEN
  6
Continuous
 62
     7
100
AcDbLine
 10
247.1288655180454
 20
192.4957392064094
 30
0.0
 11
258.0153073430284
 21
199.1799004408708
 31
0.0
  0
LINE
  5
DD
330
1F
100
AcDbEntity
  8
1
  6
DOT_CENTER
 62
     2
100
AcDbLine
 10
276.5114423371044
 20
163.1650388428536
 30
0.0
 11
263.680949980455
 21
164.5023742110282
 31
0.0
  0
LINE
  5
DE
330
1F
100
AcDbEntity
  8
1
  6
DOT_CENTER
 62
     2
100
AcDbLine
 10
270.7648638428669
 20
170.2489527052657
 30
0.0
 11
269.4275284746924
 21
157.4184603486162
 31
0.0
  0
LINE
  5
DF
330
1F
100
AcDbEntity
  8
1
  6
DOT_CENTER
 62
     2
100
AcDbLine
 10
250.904135857791
 20
195.2928438546378
 30
0.0
 11
239.167716492815
 21
196.516142873586
 31
0.0
  0
LINE
  5
E0
330
1F
100
AcDbEntity
  8
1
  6
DOT_CENTER
 62
     2
100
AcDbLine
 10
245.6475756847771
 20
201.7727030465999
 30
0.0
 11
244.4242766658289
 21
190.0362836816238
 31
0.0
  0
ARC
  5
E1
330
1F
100
AcDbEntity
  8
A_RUNDUNGEN
  6
Continuous
 62
     7
100
AcDbCircle
 10
249.701726286161
 20
193.326609666
 30
0.0
 40
1.999999999981666
100
AcDbArc
 50
-57.49999999944981
 51
32.49999999901069
  0
ARC
  5
E2
330
1F
100
AcDbEntity
  8
A_RUNDUNGEN
  6
Continuous
 62
     7
100
AcDbCircle
 10
235.782766923161
 20
205.6830885435
 30
0.0
 40
1.99999999998169
100
AcDbArc
 50
122.5000000005497
 51
-147.4999999994503
  0
ARC
  5
E3
330
1F
100
AcDbEntity
  8
A_RUNDUNGEN
  6
Continuous
 62
     7
100
AcDbCircle
 10
240.084063296761
 20
208.423316546
 30
0.0
 40
2.000000000066018
100
AcDbArc
 50
32.49999999901069
 51
122.4999999990107
  0
ARC
  5
E4
330
1F
100
AcDbEntity
  8
A_RUNDUNGEN
  6
Continuous
 62
     7
100
AcDbCircle
 10
245.400429912561
 20
190.5863816634
 30
0.0
 40
1.99999999998169
100
AcDbArc
 50
-147.4999999994503
 51
-57.49999999945026
  0
ARC
  5
E5
330
1F
100
AcDbEntity
  8
A_RUNDUNGEN
  6
Continuous
 62
     7
100
AcDbCircle
 10
243.580394091661
 20
184.3603847856
 30
0.0
 40
4.0
100
AcDbArc
 50
0.0
 51
90.0
  0
ARC
  5
E6
330
1F
100
AcDbEntity
  8
0
  6
Continuous
 62
     7
100
AcDbCircle
 10
269.1755355813549
 20
186.3504754803493
 30
0.0
 40
4.197106869015679
100
AcDbArc
 50
-1.57498482761577
 51
41.47394562331268
  0
ARC
  5
E7
330
1F
100
AcDbEntity
  8
0
  6
Continuous
 62
     7
100
AcDbCircle
 10
269.1755355813549
 20
186.3504754803493
 30
0.0
 40
5.000000000000103
100
AcDbArc
 50
-137.2000000000009
 51
-93.85824177250784
  0
ARC
  5
E8
330
1F
100
AcDbEntity
  8
0
  6
Continuous
 62
     7
100
AcDbCircle
 10
274.688635789102
 20
177.894813111301
 30
0.0
 40
0.3000000000000274
100
AcDbArc
 50
-137.2000000000164
 51
-47.20000000000586
  0
ARC
  5
E9
330
1F
100
AcDbEntity
  8
0
  6
Continuous
 62
     7
100
AcDbCircle
 10
275.1696735581093
 20
177.5225193230255
 30
0.0
 40
0.2999999999999664
100
AcDbArc
 50
42.79999999998705
 51
132.800000000018
  0
ARC
  5
EA
330
1F
100
AcDbEntity
  8
0
  6
Continuous
 62
     7
100
AcDbCircle
 10
279.518097905383
 20
172.8266481902071
 30
0.0
 40
0.2999999999999857
100
AcDbArc
 50
-47.20000000000896
 51
42.80000000001316
  0
ARC
  5
EB
330
1F
100
AcDbEntity
  8
0
  6
Continuous
 62
     7
100
AcDbCircle
 10
279.8523897014894
 20
172.3184661410793
 30
0.0
 40
0.2999999999997625
100
AcDbArc
 50
132.8000000000009
 51
-137.1999999999737
  0
ARC
  5
EC
330
1F
100
AcDbEntity
  8
0
  6
Continuous
 62
     7
100
AcDbCircle
 10
286.9648974800149
 20
154.2167875571125
 30
0.0
 40
2.000000000085928
100
AcDbArc
 50
142.8000000014888
 51
-178.9840423679949
  0
ARC
  5
ED
330
1F
100
AcDbEntity
  8
0
  6
Continuous
 62
     7
100
AcDbCircle
 10
279.623144163989
 20
161.0842700442904
 30
0.0
 40
1.999999999947337
100
AcDbArc
 50
-87.19258066313748
 51
-37.1999999980155
  0
ARC
  5
EE
330
1F
100
AcDbEntity
  8
0
  6
Continuous
 62
     7
100
AcDbCircle
 10
261.1518009867232
 20
184.7127382746559
 30
0.0
 40
2.000000000000043
100
AcDbArc
 50
42.79999999999772
 51
132.7999999999993
  0
ARC
  5
EF
330
1F
100
AcDbEntity
  8
A_RUNDUNGEN
  6
Continuous
 62
     7
100
AcDbCircle
 10
281.6966136567837
 20
165.4699537476671
 30
0.0
 40
3.000000000038957
100
AcDbArc
 50
-12.32200424194534
 51
42.80000000000042
  0
ARC
  5
F0
330
1F
100
AcDbEntity
  8
0
  6
Continuous
 62
     7
100
AcDbCircle
 10
281.6966136567837
 20
165.4699537476671
 30
0.0
 40
3.000000000062337
100
AcDbArc
 50
-37.20000000022224
 51
-12.32200424194534
  0
ARC
  5
F1
330
1F
100
AcDbEntity
  8
0
  6
Continuous
 62
     7
100
AcDbCircle
 10
253.580394091661
 20
186.5603847856
 30
0.0
 40
4.500000000000002
100
AcDbArc
 50
132.7999999999994
 51
-47.19999999999993
  0
ARC
  5
F2
330
1F
100
AcDbEntity
  8
0
  6
Continuous
 62
     7
100
AcDbCircle
 10
279.9659979104216
 20
154.0926714210989
 30
0.0
 40
4.999999999999523
100
AcDbArc
 50
92.80741933580502
 51
1.01595763329595
  0
ARC
  5
F3
330
1F
100
AcDbEntity
  8
0
  6
Continuous
 62
     7
100
AcDbCircle
 10
284.743435003353
 20
164.5220270495947
 30
0.0
 40
6.00000000002586
100
AcDbArc
 50
-37.20000000006006
 51
40.80000000013906
  0
ARC
  5
F4
330
1F
100
AcDbEntity
  8
0
  6
Continuous
 62
     7
100
AcDbCircle
 10
268.4353660210105
 20
175.3754060490253
 30
0.0
 40
6.000000000000123
100
AcDbArc
 50
42.79999999999925
 51
86.14175822719966
  0
ARC
  5
F5
330
1F
100
AcDbEntity
  8
0
  6
Continuous
 62
     7
100
AcDbCircle
 10
261.0813927186584
 20
179.1959418604506
 30
0.0
 40
15.00000000000003
100
AcDbArc
 50
41.47394562329996
 51
132.7999999999997
  0
ARC
  5
F6
330
1F
100
AcDbEntity
  8
A_RUNDUNGEN
  6
Continuous
 62
     7
100
AcDbCircle
 10
283.2239884218797
 20
162.008268964841
 30
0.0
 40
2.000000000023301
100
AcDbArc
 50
51.95087073064622
 51
61.80002241440566
  0
ARC
  5
F7
330
1F
100
AcDbEntity
  8
0
  6
Continuous
 62
     7
100
AcDbCircle
 10
295.6961961587797
 20
147.3337065269409
 30
0.0
 40
2.000000000000114
100
AcDbArc
 50
90.0
 51
179.9999999999967
  0
ARC
  5
F8
330
1F
100
AcDbEntity
  8
A_RUNDUNGEN
  6
DASHED
 62
     2
100
AcDbCircle
 10
283.2239884218797
 20
162.008268964841
 30
0.0
 40
2.000000000014527
100
AcDbArc
 50
-4.99988334316727
 51
51.95087073064622
  0
ARC
  5
F9
330
1F
100
AcDbEntity
  8
A_RUNDUNGEN
  6
DASHED
 62
     2
100
AcDbCircle
 10
278.1433945566797
 20
162.452752908741
 30
0.0
 40
2.000000000014425
100
AcDbArc
 50
85.0001166568382
 51
175.0001166568355
  0
ARC
  5
FA
330
1F
100
AcDbEntity
  8
A_RUNDUNGEN
  6
Continuous
 62
     7
100
AcDbCircle
 10
283.2239884218797
 20
162.008268964841
 30
0.0
 40
2.000000000023093
100
AcDbArc
 50
61.80002241440566
 51
85.00011665398459
  0
ARC
  5
FB
330
1F
100
AcDbEntity
  8
0
  6
Continuous
 62
     7
100
AcDbCircle
 10
270.1961961587796
 20
157.3337065269409
 30
0.0
 40
1.0
100
AcDbArc
 50
0.0
 51
89.99999999999675
  0
ARC
  5
FC
330
1F
100
AcDbEntity
  8
0
  6
Continuous
 62
     7
100
AcDbCircle
 10
294.6868577050798
 20
128.333706526941
 30
0.0
 40
1.5
100
AcDbArc
 50
-90.0
 51
-7.99999999855306
  0
ARC
  5
FD
330
1F
100
AcDbEntity
  8
0
  6
Continuous
 62
     7
100
AcDbCircle
 10
272.1055346125796
 20
128.3337065269409
 30
0.0
 40
1.499999999982014
100
AcDbArc
 50
-172.0000000014506
 51
-89.99999999999784
  0
ARC
  5
FE
330
1F
100
AcDbEntity
  8
0
  6
Continuous
 62
     7
100
AcDbCircle
 10
270.1701473919446
 20
186.246806071964
 30
0.0
 40
4.199999999996035
100
AcDbArc
 50
23.04948909710192
 51
76.85285978243805
  0
ARC
  5
FF
330
1F
100
AcDbEntity
  8
0
  6
Continuous
 62
     7
100
AcDbCircle
 10
264.9197832585052
 20
174.0668045239298
 30
0.0
 40
7.999999999952295
100
AcDbArc
 50
23.04948909722206
 51
67.25245185019735
  0
ARC
  5
100
330
1F
100
AcDbEntity
  8
0
  6
Continuous
 62
     7
100
AcDbCircle
 10
270.1701473919446
 20
186.246806071964
 30
0.0
 40
4.200000000000076
100
AcDbArc
 50
76.85285978243805
 51
84.04948909761045
  0
ARC
  5
101
330
1F
100
AcDbEntity
  8
0
  6
DASHED
 62
     2
100
AcDbCircle
 10
269.1755355813549
 20
186.3504754803493
 30
0.0
 40
5.000000000042748
100
AcDbArc
 50
-149.9505109022097
 51
-109.1089536808076
  0
ARC
  5
102
330
1F
100
AcDbEntity
  8
0
  6
DASHED
 62
     2
100
AcDbCircle
 10
267.3317563868689
 20
192.7762422269704
 30
0.0
 40
2.000000000006902
100
AcDbArc
 50
-153.9505109013761
 51
-95.95051090239046
  0
ARC
  5
103
330
1F
100
AcDbEntity
  8
A_RUNDUNGEN
  6
Continuous
 62
     7
100
AcDbCircle
 10
273.1833966623229
 20
171.2473128227048
 30
0.0
 40
1.500000000036127
100
AcDbArc
 50
-70.95051090349602
 51
23.04948909879699
  0
ARC
  5
104
330
1F
100
AcDbEntity
  8
A_RUNDUNGEN
  6
Continuous
 62
     7
100
AcDbCircle
 10
275.1049090450814
 20
162.3893781579235
 30
0.0
 40
1.500000000000036
100
AcDbArc
 50
-70.95051090238603
 51
23.04948909880169
  0
ARC
  5
105
330
1F
100
AcDbEntity
  8
0
  6
Continuous
 62
     7
100
AcDbCircle
 10
270.0961961587796
 20
163.8337065269409
 30
0.0
 40
4.500000000017819
100
AcDbArc
 50
109.0494890970407
 51
-70.95051090295918
  0
ARC
  5
106
330
1F
100
AcDbEntity
  8
0
  6
Continuous
 62
     7
100
AcDbCircle
 10
276.1813750050044
 20
167.5217861896158
 30
0.0
 40
5.999999999963239
100
AcDbArc
 50
-70.95051090268987
 51
23.04948909796332
  0
ARC
  5
107
330
1F
100
AcDbEntity
  8
0
  6
DASHED
 62
     2
100
AcDbCircle
 10
264.9197832585052
 20
174.0668045239298
 30
0.0
 40
8.000000000000044
100
AcDbArc
 50
67.25245185019735
 51
70.89104631881081
  0
ARC
  5
108
330
1F
100
AcDbEntity
  8
A_RUNDUNGEN
  6
Continuous
 62
     7
100
AcDbCircle
 10
257.7536899251804
 20
199.6059947105339
 30
0.0
 40
0.4999999999611727
100
AcDbArc
 50
-58.45051089960804
 51
84.04948909760834
  0
ARC
  5
109
330
1F
100
AcDbEntity
  8
A_RUNDUNGEN
  6
Continuous
 62
     7
100
AcDbCircle
 10
254.9294302352276
 20
192.0046826120665
 30
0.0
 40
4.500000000059525
100
AcDbArc
 50
30.04948909837935
 51
121.5494890976073
  0
ARC
  5
10A
330
1F
100
AcDbEntity
  8
A_RUNDUNGEN
  6
Continuous
 62
     7
100
AcDbCircle
 10
257.7938083438963
 20
194.072017540618
 30
0.0
 40
6.00000000005253
100
AcDbArc
 50
26.04948909730624
 51
84.04948909761012
  0
ARC
  5
10B
330
1F
100
AcDbEntity
  8
0
  6
Continuous
 62
     7
100
AcDbCircle
 10
251.9315528167976
 20
194.6830464423735
 30
0.0
 40
5.999999999999937
100
AcDbArc
 50
84.04948909761092
 51
96.54948909738427
  0
ARC
  5
10C
330
1F
100
AcDbEntity
  8
0
  6
Continuous
 62
     7
100
AcDbCircle
 10
245.035926175303
 20
195.9044933641118
 30
0.0
 40
4.000000000008465
100
AcDbArc
 50
96.54948909681555
 51
-58.45051090309101
  0
CIRCLE
  5
10D
330
1F
100
AcDbEntity
  8
A_NOTIZEN_SYMB
  6
Continuous
 62
     2
100
AcDbCircle
 10
236.245940347761
 20
175.7360394057
 30
0.0
 40
0.6764957215999914
  0
CIRCLE
  5
10E
330
1F
100
AcDbEntity
  8
A_NOTIZEN_SYMB
  6
Continuous
 62
     2
100
AcDbCircle
 10
235.733952820961
 20
178.3890656809
 30
0.0
 40
0.6764957215999914
  0
CIRCLE
  5
10F
330
1F
100
AcDbEntity
  8
A_NOTIZEN_SYMB
  6
Continuous
 62
     2
100
AcDbCircle
 10
250.727405727261
 20
175.799674219
 30
0.0
 40
0.6764957216000198
  0
CIRCLE
  5
110
330
1F
100
AcDbEntity
  8
A_NOTIZEN_SYMB
  6
Continuous
 62
     2
100
AcDbCircle
 10
250.215418200461
 20
178.4527004942
 30
0.0
 40
0.6764957216000198
  0
CIRCLE
  5
111
330
1F
100
AcDbEntity
  8
A_NOTIZEN_SYMB
  6
Continuous
 62
     2
100
AcDbCircle
 10
241.591264668661
 20
175.6633139047
 30
0.0
 40
0.6764957215999914
  0
CIRCLE
  5
112
330
1F
100
AcDbEntity
  8
A_NOTIZEN_SYMB
  6
Continuous
 62
     2
100
AcDbCircle
 10
241.079277141861
 20
178.3163401799
 30
0.0
 40
0.6764957215999914
  0
CIRCLE
  5
113
330
1F
100
AcDbEntity
  8
A_NOTIZEN_SYMB
  6
Continuous
 62
     2
100
AcDbCircle
 10
228.046140114061
 20
175.9814879715
 30
0.0
 40
0.6764957216000198
  0
CIRCLE
  5
114
330
1F
100
AcDbEntity
  8
A_NOTIZEN_SYMB
  6
Continuous
 62
     2
100
AcDbCircle
 10
238.638001135161
 20
179.8996521522
 30
0.0
 40
0.6914661694999893
  0
CIRCLE
  5
115
330
1F
100
AcDbEntity
  8
A_NOTIZEN_SYMB
  6
Continuous
 62
     2
100
AcDbCircle
 10
253.119466514661
 20
179.9632869655
 30
0.0
 40
0.6914661694999893
  0
CIRCLE
  5
116
330
1F
100
AcDbEntity
  8
A_NOTIZEN_SYMB
  6
Continuous
 62
     2
100
AcDbCircle
 10
243.983325456061
 20
179.8269266512
 30
0.0
 40
0.6914661694999893
  0
CIRCLE
  5
117
330
1F
100
AcDbEntity
  8
A_NOTIZEN_SYMB
  6
Continuous
 62
     2
100
AcDbCircle
 10
230.438200901461
 20
180.1451007179
 30
0.0
 40
0.6914661695000177
  0
CIRCLE
  5
118
330
1F
100
AcDbEntity
  8
A_NOTIZEN_SYMB
  6
Continuous
 62
     2
100
AcDbCircle
 10
238.780601608861
 20
174.0595795095
 30
0.0
 40
0.8092754576000232
  0
CIRCLE
  5
119
330
1F
100
AcDbEntity
  8
A_NOTIZEN_SYMB
  6
Continuous
 62
     2
100
AcDbCircle
 10
238.780601608861
 20
177.377680491
 30
0.0
 40
0.8092754576000232
  0
CIRCLE
  5
11A
330
1F
100
AcDbEntity
  8
A_NOTIZEN_SYMB
  6
Continuous
 62
     2
100
AcDbCircle
 10
256.016545337361
 20
176.2958886642
 30
0.0
 40
0.8092754575999948
  0
CIRCLE
  5
11B
330
1F
100
AcDbEntity
  8
A_NOTIZEN_SYMB
  6
Continuous
 62
     2
100
AcDbCircle
 10
255.762006083961
 20
179.3958131428
 30
0.0
 40
0.8092754575999948
  0
CIRCLE
  5
11C
330
1F
100
AcDbEntity
  8
A_NOTIZEN_SYMB
  6
Continuous
 62
     2
100
AcDbCircle
 10
253.262066988361
 20
174.1232143229
 30
0.0
 40
0.8092754575999948
  0
CIRCLE
  5
11D
330
1F
100
AcDbEntity
  8
A_NOTIZEN_SYMB
  6
Continuous
 62
     2
100
AcDbCircle
 10
253.262066988361
 20
177.4413153044
 30
0.0
 40
0.8092754575999948
  0
CIRCLE
  5
11E
330
1F
100
AcDbEntity
  8
A_NOTIZEN_SYMB
  6
Continuous
 62
     2
100
AcDbCircle
 10
246.880404278761
 20
176.1595283499
 30
0.0
 40
0.8092754575999948
  0
CIRCLE
  5
11F
330
1F
100
AcDbEntity
  8
A_NOTIZEN_SYMB
  6
Continuous
 62
     2
100
AcDbCircle
 10
246.625865025361
 20
179.2594528285
 30
0.0
 40
0.8092754575999948
  0
CIRCLE
  5
120
330
1F
100
AcDbEntity
  8
A_NOTIZEN_SYMB
  6
Continuous
 62
     2
100
AcDbCircle
 10
244.125925929761
 20
173.9868540086
 30
0.0
 40
0.8092754575999948
  0
CIRCLE
  5
121
330
1F
100
AcDbEntity
  8
A_NOTIZEN_SYMB
  6
Continuous
 62
     2
100
AcDbCircle
 10
244.125925929761
 20
177.3049549901
 30
0.0
 40
0.8092754575999948
  0
CIRCLE
  5
122
330
1F
100
AcDbEntity
  8
A_NOTIZEN_SYMB
  6
Continuous
 62
     2
100
AcDbCircle
 10
233.335279724161
 20
176.4777024166
 30
0.0
 40
0.8092754575999948
  0
CIRCLE
  5
123
330
1F
100
AcDbEntity
  8
A_NOTIZEN_SYMB
  6
Continuous
 62
     2
100
AcDbCircle
 10
233.080740470761
 20
179.5776268952
 30
0.0
 40
0.8092754576000232
  0
CIRCLE
  5
124
330
1F
100
AcDbEntity
  8
A_NOTIZEN_SYMB
  6
Continuous
 62
     2
100
AcDbCircle
 10
230.580801375161
 20
174.3050280753
 30
0.0
 40
0.8092754575999948
  0
CIRCLE
  5
125
330
1F
100
AcDbEntity
  8
A_NOTIZEN_SYMB
  6
Continuous
 62
     2
100
AcDbCircle
 10
230.580801375161
 20
177.6231290568
 30
0.0
 40
0.8092754575999948
  0
CIRCLE
  5
126
330
1F
100
AcDbEntity
  8
A_NOTIZEN_SYMB
  6
Continuous
 62
     2
100
AcDbCircle
 10
253.398445679661
 20
167.7759832381
 30
0.0
 40
0.603970843399992
  0
CIRCLE
  5
127
330
1F
100
AcDbEntity
  8
A_NOTIZEN_SYMB
  6
Continuous
 62
     2
100
AcDbCircle
 10
244.762292440261
 20
167.7759832381
 30
0.0
 40
0.603970843399992
  0
CIRCLE
  5
128
330
1F
100
AcDbEntity
  8
A_NOTIZEN_SYMB
  6
Continuous
 62
     2
100
AcDbCircle
 10
231.353528199961
 20
167.7759832381
 30
0.0
 40
0.603970843399992
  0
CIRCLE
  5
129
330
1F
100
AcDbEntity
  8
A_NOTIZEN_SYMB
  6
Continuous
 62
     2
100
AcDbCircle
 10
238.875694462661
 20
170.7383500396
 30
0.0
 40
0.6764957216000198
  0
CIRCLE
  5
12A
330
1F
100
AcDbEntity
  8
A_NOTIZEN_SYMB
  6
Continuous
 62
     2
100
AcDbCircle
 10
236.245940347761
 20
168.0096821833
 30
0.0
 40
0.6764957215999914
  0
CIRCLE
  5
12B
330
1F
100
AcDbEntity
  8
A_NOTIZEN_SYMB
  6
Continuous
 62
     2
100
AcDbCircle
 10
235.245237454461
 20
170.77906926
 30
0.0
 40
0.6764957215999914
  0
CIRCLE
  5
12C
330
1F
100
AcDbEntity
  8
A_NOTIZEN_SYMB
  6
Continuous
 62
     2
100
AcDbCircle
 10
235.733952820961
 20
173.1528296115
 30
0.0
 40
0.6764957215999914
  0
CIRCLE
  5
12D
330
1F
100
AcDbEntity
  8
A_NOTIZEN_SYMB
  6
Continuous
 62
     2
100
AcDbCircle
 10
253.357159842161
 20
170.8019848529
 30
0.0
 40
0.6764957215999914
  0
CIRCLE
  5
12E
330
1F
100
AcDbEntity
  8
A_NOTIZEN_SYMB
  6
Continuous
 62
     2
100
AcDbCircle
 10
250.727405727261
 20
168.0733169966
 30
0.0
 40
0.6764957216000198
  0
CIRCLE
  5
12F
330
1F
100
AcDbEntity
  8
A_NOTIZEN_SYMB
  6
Continuous
 62
     2
100
AcDbCircle
 10
249.726702833961
 20
170.8427040733
 30
0.0
 40
0.6764957215999914
  0
CIRCLE
  5
130
330
1F
100
AcDbEntity
  8
A_NOTIZEN_SYMB
  6
Continuous
 62
     2
100
AcDbCircle
 10
250.215418200461
 20
173.2164644248
 30
0.0
 40
0.6764957216000198
  0
CIRCLE
  5
131
330
1F
100
AcDbEntity
  8
A_NOTIZEN_SYMB
  6
Continuous
 62
     2
100
AcDbCircle
 10
244.221018783461
 20
170.6656245386
 30
0.0
 40
0.6764957215999914
  0
CIRCLE
  5
132
330
1F
100
AcDbEntity
  8
A_NOTIZEN_SYMB
  6
Continuous
 62
     2
100
AcDbCircle
 10
241.591264668661
 20
167.9369566823
 30
0.0
 40
0.6764957215999914
  0
CIRCLE
  5
133
330
1F
100
AcDbEntity
  8
A_NOTIZEN_SYMB
  6
Continuous
 62
     2
100
AcDbCircle
 10
240.590561775361
 20
170.706343759
 30
0.0
 40
0.6764957215999914
  0
CIRCLE
  5
134
330
1F
100
AcDbEntity
  8
A_NOTIZEN_SYMB
  6
Continuous
 62
     2
100
AcDbCircle
 10
241.079277141861
 20
173.0801041105
 30
0.0
 40
0.6764957215999914
  0
CIRCLE
  5
135
330
1F
100
AcDbEntity
  8
A_NOTIZEN_SYMB
  6
Continuous
 62
     2
100
AcDbCircle
 10
230.675894228961
 20
170.9837986054
 30
0.0
 40
0.6764957215999914
  0
CIRCLE
  5
136
330
1F
100
AcDbEntity
  8
A_NOTIZEN_SYMB
  6
Continuous
 62
     2
100
AcDbCircle
 10
228.046140114061
 20
168.255130749
 30
0.0
 40
0.6764957216000198
  0
CIRCLE
  5
137
330
1F
100
AcDbEntity
  8
A_NOTIZEN_SYMB
  6
Continuous
 62
     2
100
AcDbCircle
 10
255.762006083961
 20
169.8051377031
 30
0.0
 40
0.8092754575999948
  0
CIRCLE
  5
138
330
1F
100
AcDbEntity
  8
A_NOTIZEN_SYMB
  6
Continuous
 62
     2
100
AcDbCircle
 10
255.762006083961
 20
173.1686921227
 30
0.0
 40
0.8092754575999948
  0
CIRCLE
  5
139
330
1F
100
AcDbEntity
  8
A_NOTIZEN_SYMB
  6
Continuous
 62
     2
100
AcDbCircle
 10
246.625865025361
 20
169.6687773888
 30
0.0
 40
0.8092754575999948
  0
CIRCLE
  5
13A
330
1F
100
AcDbEntity
  8
A_NOTIZEN_SYMB
  6
Continuous
 62
     2
100
AcDbCircle
 10
246.625865025361
 20
173.0323318084
 30
0.0
 40
0.8092754575999948
  0
CIRCLE
  5
13B
330
1F
100
AcDbEntity
  8
A_NOTIZEN_SYMB
  6
Continuous
 62
     2
100
AcDbCircle
 10
233.080740470761
 20
169.9869514555
 30
0.0
 40
0.8092754576000232
  0
CIRCLE
  5
13C
330
1F
100
AcDbEntity
  8
A_NOTIZEN_SYMB
  6
Continuous
 62
     2
100
AcDbCircle
 10
233.080740470761
 20
173.3505058751
 30
0.0
 40
0.8092754576000232
  0
CIRCLE
  5
13D
330
1F
100
AcDbEntity
  8
A_NOTIZEN_SYMB
  6
Continuous
 62
     2
100
AcDbCircle
 10
227.534152587261
 20
178.6345142466
 30
0.0
 40
0.6764957216000198
  0
CIRCLE
  5
13E
330
1F
100
AcDbEntity
  8
A_NOTIZEN_SYMB
  6
Continuous
 62
     2
100
AcDbCircle
 10
218.909999055461
 20
175.8451276571
 30
0.0
 40
0.6764957216000198
  0
CIRCLE
  5
13F
330
1F
100
AcDbEntity
  8
A_NOTIZEN_SYMB
  6
Continuous
 62
     2
100
AcDbCircle
 10
218.398011528661
 20
178.4981539323
 30
0.0
 40
0.6764957216000198
  0
CIRCLE
  5
140
330
1F
100
AcDbEntity
  8
A_NOTIZEN_SYMB
  6
Continuous
 62
     2
100
AcDbCircle
 10
209.773857996761
 20
175.7087673428
 30
0.0
 40
0.6764957215999914
  0
CIRCLE
  5
141
330
1F
100
AcDbEntity
  8
A_NOTIZEN_SYMB
  6
Continuous
 62
     2
100
AcDbCircle
 10
209.261870469961
 20
178.361793618
 30
0.0
 40
0.6764957215999914
  0
CIRCLE
  5
142
330
1F
100
AcDbEntity
  8
A_NOTIZEN_SYMB
  6
Continuous
 62
     2
100
AcDbCircle
 10
200.637716938161
 20
175.5724070285
 30
0.0
 40
0.6764957216000198
  0
CIRCLE
  5
143
330
1F
100
AcDbEntity
  8
A_NOTIZEN_SYMB
  6
Continuous
 62
     2
100
AcDbCircle
 10
200.125729411361
 20
178.2254333037
 30
0.0
 40
0.6764957216000198
  0
CIRCLE
  5
144
330
1F
100
AcDbEntity
  8
A_NOTIZEN_SYMB
  6
Continuous
 62
     2
100
AcDbCircle
 10
221.302059842861
 20
180.0087404036
 30
0.0
 40
0.6914661694999893
  0
CIRCLE
  5
145
330
1F
100
AcDbEntity
  8
A_NOTIZEN_SYMB
  6
Continuous
 62
     2
100
AcDbCircle
 10
212.165918784261
 20
179.8723800893
 30
0.0
 40
0.6914661694999893
  0
CIRCLE
  5
146
330
1F
100
AcDbEntity
  8
A_NOTIZEN_SYMB
  6
Continuous
 62
     2
100
AcDbCircle
 10
203.029777725661
 20
179.736019775
 30
0.0
 40
0.6914661694999893
  0
CIRCLE
  5
147
330
1F
100
AcDbEntity
  8
A_NOTIZEN_SYMB
  6
Continuous
 62
     2
100
AcDbCircle
 10
224.199138665561
 20
176.3413421023
 30
0.0
 40
0.8092754575999948
  0
CIRCLE
  5
148
330
1F
100
AcDbEntity
  8
A_NOTIZEN_SYMB
  6
Continuous
 62
     2
100
AcDbCircle
 10
223.944599412161
 20
179.4412665809
 30
0.0
 40
0.8092754575999948
  0
CIRCLE
  5
149
330
1F
100
AcDbEntity
  8
A_NOTIZEN_SYMB
  6
Continuous
 62
     2
100
AcDbCircle
 10
221.444660316561
 20
174.168667761
 30
0.0
 40
0.8092754575999948
  0
CIRCLE
  5
14A
330
1F
100
AcDbEntity
  8
A_NOTIZEN_SYMB
  6
Continuous
 62
     2
100
AcDbCircle
 10
221.444660316561
 20
177.4867687425
 30
0.0
 40
0.8092754575999948
  0
CIRCLE
  5
14B
330
1F
100
AcDbEntity
  8
A_NOTIZEN_SYMB
  6
Continuous
 62
     2
100
AcDbCircle
 10
215.062997606861
 20
176.204981788
 30
0.0
 40
0.8092754576000232
  0
CIRCLE
  5
14C
330
1F
100
AcDbEntity
  8
A_NOTIZEN_SYMB
  6
Continuous
 62
     2
100
AcDbCircle
 10
214.808458353561
 20
179.3049062666
 30
0.0
 40
0.8092754575999948
  0
CIRCLE
  5
14D
330
1F
100
AcDbEntity
  8
A_NOTIZEN_SYMB
  6
Continuous
 62
     2
100
AcDbCircle
 10
212.308519257861
 20
174.0323074467
 30
0.0
 40
0.8092754575999948
  0
CIRCLE
  5
14E
330
1F
100
AcDbEntity
  8
A_NOTIZEN_SYMB
  6
Continuous
 62
     2
100
AcDbCircle
 10
212.308519257861
 20
177.3504084282
 30
0.0
 40
0.8092754575999948
  0
CIRCLE
  5
14F
330
1F
100
AcDbEntity
  8
A_NOTIZEN_SYMB
  6
Continuous
 62
     2
100
AcDbCircle
 10
205.926856548261
 20
176.0686214737
 30
0.0
 40
0.8092754576000232
  0
CIRCLE
  5
150
330
1F
100
AcDbEntity
  8
A_NOTIZEN_SYMB
  6
Continuous
 62
     2
100
AcDbCircle
 10
205.672317294861
 20
179.1685459523
 30
0.0
 40
0.8092754576000232
  0
CIRCLE
  5
151
330
1F
100
AcDbEntity
  8
A_NOTIZEN_SYMB
  6
Continuous
 62
     2
100
AcDbCircle
 10
203.172378199261
 20
177.2140481139
 30
0.0
 40
0.8092754575999948
  0
CIRCLE
  5
152
330
1F
100
AcDbEntity
  8
A_NOTIZEN_SYMB
  6
Continuous
 62
     2
100
AcDbCircle
 10
221.865122996061
 20
167.7759832381
 30
0.0
 40
0.6039708434000204
  0
CIRCLE
  5
153
330
1F
100
AcDbEntity
  8
A_NOTIZEN_SYMB
  6
Continuous
 62
     2
100
AcDbCircle
 10
212.490351387361
 20
167.7759832381
 30
0.0
 40
0.6039708434000204
  0
CIRCLE
  5
154
330
1F
100
AcDbEntity
  8
A_NOTIZEN_SYMB
  6
Continuous
 62
     2
100
AcDbCircle
 10
203.115579778661
 20
167.7759832381
 30
0.0
 40
0.6039708434000204
  0
CIRCLE
  5
155
330
1F
100
AcDbEntity
  8
A_NOTIZEN_SYMB
  6
Continuous
 62
     2
100
AcDbCircle
 10
227.045437220761
 20
171.0245178257
 30
0.0
 40
0.6764957216000198
  0
CIRCLE
  5
156
330
1F
100
AcDbEntity
  8
A_NOTIZEN_SYMB
  6
Continuous
 62
     2
100
AcDbCircle
 10
227.534152587261
 20
173.3982781772
 30
0.0
 40
0.6764957216000198
  0
CIRCLE
  5
157
330
1F
100
AcDbEntity
  8
A_NOTIZEN_SYMB
  6
Continuous
 62
     2
100
AcDbCircle
 10
221.539753170261
 20
170.847438291
 30
0.0
 40
0.6764957215999914
  0
CIRCLE
  5
158
330
1F
100
AcDbEntity
  8
A_NOTIZEN_SYMB
  6
Continuous
 62
     2
100
AcDbCircle
 10
218.909999055461
 20
168.1187704347
 30
0.0
 40
0.6764957216000198
  0
CIRCLE
  5
159
330
1F
100
AcDbEntity
  8
A_NOTIZEN_SYMB
  6
Continuous
 62
     2
100
AcDbCircle
 10
217.909296162161
 20
170.8881575114
 30
0.0
 40
0.6764957215999914
  0
CIRCLE
  5
15A
330
1F
100
AcDbEntity
  8
A_NOTIZEN_SYMB
  6
Continuous
 62
     2
100
AcDbCircle
 10
218.398011528661
 20
173.2619178629
 30
0.0
 40
0.6764957216000198
  0
CIRCLE
  5
15B
330
1F
100
AcDbEntity
  8
A_NOTIZEN_SYMB
  6
Continuous
 62
     2
100
AcDbCircle
 10
212.403612111661
 20
170.7110779767
 30
0.0
 40
0.6764957215999914
  0
CIRCLE
  5
15C
330
1F
100
AcDbEntity
  8
A_NOTIZEN_SYMB
  6
Continuous
 62
     2
100
AcDbCircle
 10
209.773857996761
 20
167.9824101204
 30
0.0
 40
0.6764957215999914
  0
CIRCLE
  5
15D
330
1F
100
AcDbEntity
  8
A_NOTIZEN_SYMB
  6
Continuous
 62
     2
100
AcDbCircle
 10
208.773155103561
 20
170.7517971971
 30
0.0
 40
0.6764957215999914
  0
CIRCLE
  5
15E
330
1F
100
AcDbEntity
  8
A_NOTIZEN_SYMB
  6
Continuous
 62
     2
100
AcDbCircle
 10
209.261870469961
 20
173.1255575486
 30
0.0
 40
0.6764957215999914
  0
CIRCLE
  5
15F
330
1F
100
AcDbEntity
  8
A_NOTIZEN_SYMB
  6
Continuous
 62
     2
100
AcDbCircle
 10
203.267471053061
 20
170.5747176624
 30
0.0
 40
0.6764957215999914
  0
CIRCLE
  5
160
330
1F
100
AcDbEntity
  8
A_NOTIZEN_SYMB
  6
Continuous
 62
     2
100
AcDbCircle
 10
200.637716938161
 20
167.8460498061
 30
0.0
 40
0.6764957216000198
  0
CIRCLE
  5
161
330
1F
100
AcDbEntity
  8
A_NOTIZEN_SYMB
  6
Continuous
 62
     2
100
AcDbCircle
 10
199.637014044861
 20
170.6154368828
 30
0.0
 40
0.6764957216000198
  0
CIRCLE
  5
162
330
1F
100
AcDbEntity
  8
A_NOTIZEN_SYMB
  6
Continuous
 62
     2
100
AcDbCircle
 10
200.125729411361
 20
172.9891972343
 30
0.0
 40
0.6764957216000198
  0
CIRCLE
  5
163
330
1F
100
AcDbEntity
  8
A_NOTIZEN_SYMB
  6
Continuous
 62
     2
100
AcDbCircle
 10
223.944599412161
 20
169.8505911412
 30
0.0
 40
0.8092754575999948
  0
CIRCLE
  5
164
330
1F
100
AcDbEntity
  8
A_NOTIZEN_SYMB
  6
Continuous
 62
     2
100
AcDbCircle
 10
223.944599412161
 20
173.2141455608
 30
0.0
 40
0.8092754575999948
  0
CIRCLE
  5
165
330
1F
100
AcDbEntity
  8
A_NOTIZEN_SYMB
  6
Continuous
 62
     2
100
AcDbCircle
 10
214.808458353561
 20
169.7142308269
 30
0.0
 40
0.8092754575999948
  0
CIRCLE
  5
166
330
1F
100
AcDbEntity
  8
A_NOTIZEN_SYMB
  6
Continuous
 62
     2
100
AcDbCircle
 10
214.808458353561
 20
173.0777852465
 30
0.0
 40
0.8092754575999948
  0
CIRCLE
  5
167
330
1F
100
AcDbEntity
  8
A_NOTIZEN_SYMB
  6
Continuous
 62
     2
100
AcDbCircle
 10
205.672317294861
 20
169.5778705126
 30
0.0
 40
0.8092754576000232
  0
CIRCLE
  5
168
330
1F
100
AcDbEntity
  8
A_NOTIZEN_SYMB
  6
Continuous
 62
     2
100
AcDbCircle
 10
205.672317294861
 20
172.9414249322
 30
0.0
 40
0.8092754576000232
  0
CIRCLE
  5
169
330
1F
100
AcDbEntity
  8
A_NOTIZEN_SYMB
  6
Continuous
 62
     2
100
AcDbCircle
 10
203.172378199261
 20
173.8959471324
 30
0.0
 40
0.8092754575999948
  0
CIRCLE
  5
16A
330
1F
100
AcDbEntity
  8
1
  6
Continuous
 62
     7
100
AcDbCircle
 10
279.9659979104216
 20
154.0926714210989
 30
0.0
 40
2.000000000000022
  0
CIRCLE
  5
16B
330
1F
100
AcDbEntity
  8
1
  6
Continuous
 62
     7
100
AcDbCircle
 10
269.1755355813549
 20
186.3504754803493
 30
0.0
 40
2.000000000000022
  0
CIRCLE
  5
16C
330
1F
100
AcDbEntity
  8
1
  6
Continuous
 62
     7
100
AcDbCircle
 10
253.580394091661
 20
186.5603847856
 30
0.0
 40
2.000000000000016
  0
CIRCLE
  5
16D
330
1F
100
AcDbEntity
  8
1
  6
Continuous
 62
     7
100
AcDbCircle
 10
245.035926175303
 20
195.9044933641118
 30
0.0
 40
1.999999999999869
  0
CIRCLE
  5
16E
330
1F
100
AcDbEntity
  8
1
  6
Continuous
 62
     7
100
AcDbCircle
 10
270.0961961587796
 20
163.8337065269409
 30
0.0
 40
1.999999999999991
  0
SPLINE
  5
16F
330
1F
100
AcDbEntity
  8
A_RUNDUNGEN
  6
Continuous
 62
     7
100
AcDbSpline
210
0.0
220
0.0
230
1.0
 70
     8
 71
     3
 72
    21
 73
    17
 74
    15
 42
0.0000000001
 43
0.0000000001
 44
0.00000001
 40
0.0
 40
0.0
 40
0.0
 40
0.0
 40
0.0859597820288004
 40
0.1719195912751683
 40
0.2117370709885558
 40
0.2515592021546633
 40
0.2876579564401991
 40
0.3237422112724239
 40
0.3550058187453068
 40
0.3863118217053113
 40
0.4119261164060708
 40
0.4374282561407152
 40
0.4564068193748194
 40
0.4756387620995113
 40
0.4936855309090997
 40
0.5112409267395905
 40
0.5112409267395905
 40
0.5112409267395905
 40
0.5112409267395905
 10
274.0409221799797
 20
132.771149844541
 30
0.0
 10
274.0122686931202
 20
132.7710273313895
 30
0.0
 10
273.9549617103286
 20
132.7707823050476
 30
0.0
 10
273.8843974152231
 20
132.7691107981945
 30
0.0
 10
273.8292324136762
 20
132.7671416499672
 30
0.0
 10
273.7906912046898
 20
132.7654100800784
 30
0.0
 10
273.75341048645
 20
132.7633849618824
 30
0.0
 10
273.7190025620856
 20
132.761109152914
 30
0.0
 10
273.6862207294981
 20
132.7584923746927
 30
0.0
 10
273.6569537200915
 20
132.7557674043113
 30
0.0
 10
273.62962354064
 20
132.7528964050591
 30
0.0
 10
273.6064808906821
 20
132.7497555090466
 30
0.0
 10
273.5855105345988
 20
132.7460922086148
 30
0.0
 10
273.5673107018173
 20
132.7422754648276
 30
0.0
 10
273.5486638747369
 20
132.7395053029219
 30
0.0
 10
273.5396366323835
 20
132.7314014938916
 30
0.0
 10
273.5351853071796
 20
132.7274055128409
 30
0.0
 11
274.0409221799797
 21
132.771149844541
 31
0.0
 11
273.9549648221993
 21
132.770504267401
 31
0.0
 11
273.8690281092385
 21
132.7685117385644
 31
0.0
 11
273.8292363575862
 21
132.7670805882684
 31
0.0
 11
273.7894545387013
 21
132.765289215381
 31
0.0
 11
273.7534098668434
 21
132.7633139453681
 31
0.0
 11
273.717405402418
 21
132.760915615066
 31
0.0
 11
273.6862411492053
 21
132.7584251384228
 31
0.0
 11
273.655069876937
 21
132.7555238272518
 31
0.0
 11
273.6296046472261
 21
132.7527644489187
 31
0.0
 11
273.6043419956557
 21
132.7492776786829
 31
0.0
 11
273.5856469916411
 21
132.746009240627
 31
0.0
 11
273.5667630995778
 21
132.7423669554227
 31
0.0
 11
273.5492880753253
 21
132.7378603611608
 31
0.0
 11
273.5351853071796
 21
132.7274055128409
 31
0.0
  0
SPLINE
  5
170
330
1F
100
AcDbEntity
  8
A_RUNDUNGEN
  6
Continuous
 62
     7
100
AcDbSpline
210
0.0
220
0.0
230
1.0
 70
     8
 71
     3
 72
    23
 73
    19
 74
    17
 42
0.0000000001
 43
0.0000000001
 44
0.00000001
 40
0.0
 40
0.0
 40
0.0
 40
0.0
 40
0.0163842828549651
 40
0.0334166731465018
 40
0.0520961913315236
 40
0.070438191445339
 40
0.0953792055369318
 40
0.1204708803717591
 40
0.1513145931850937
 40
0.1821006329996678
 40
0.217799274818421
 40
0.2535198457068173
 40
0.2930661319495885
 40
0.3325961363269013
 40
0.3747539859753498
 40
0.4169546412502798
 40
0.4605847757446253
 40
0.5040563762806439
 40
0.5040563762806439
 40
0.5040563762806439
 40
0.5040563762806439
 10
282.6699442016797
 20
132.7274055128408
 30
0.0
 10
282.6660657102638
 20
132.7314749500786
 30
0.0
 10
282.6581553072823
 20
132.7397747978823
 30
0.0
 10
282.640240205132
 20
132.7422614510869
 30
0.0
 10
282.6228338628056
 20
132.7460667353222
 30
0.0
 10
282.6024516300942
 20
132.7497822250694
 30
0.0
 10
282.5798916927383
 20
132.7529247214822
 30
0.0
 10
282.5530753079253
 20
132.7557686140333
 30
0.0
 10
282.5242982146408
 20
132.7584903946855
 30
0.0
 10
282.4919601048916
 20
132.7611156387443
 30
0.0
 10
282.4579666514488
 20
132.7633883742333
 30
0.0
 10
282.4210328534778
 20
132.7654112254143
 30
0.0
 10
282.3828062023463
 20
132.767149971657
 30
0.0
 10
282.3424203748643
 20
132.768603106541
 30
0.0
 10
282.3011381360521
 20
132.7697003133645
 30
0.0
 10
282.2584832039265
 20
132.7705148867172
 30
0.0
 10
282.215386655972
 20
132.7712099515487
 30
0.0
 10
282.1863522139711
 20
132.7711698558842
 30
0.0
 10
282.1718614157797
 20
132.771149844541
 30
0.0
 11
282.6699442016797
 21
132.7274055128408
 31
0.0
 11
282.6574478448691
 21
132.7380020118444
 31
0.0
 11
282.6409842612341
 21
132.7423669554793
 31
0.0
 11
282.6226598963327
 21
132.7459921521067
 31
0.0
 11
282.6046145566864
 21
132.7492776787351
 31
0.0
 11
282.5799211780788
 21
132.7527835647652
 31
0.0
 11
282.5549795841588
 21
132.7555238272981
 31
0.0
 11
282.5242725318116
 21
132.7584240956051
 31
0.0
 11
282.493587477175
 21
132.7609156151048
 31
0.0
 11
282.4579696535264
 21
132.7633163787838
 31
0.0
 11
282.42230360384
 21
132.7652892154112
 31
0.0
 11
282.3827982353957
 21
132.7670877202547
 31
0.0
 11
282.3432938885733
 21
132.768511738585
 31
0.0
 11
282.3011513389798
 21
132.7696474325315
 31
0.0
 11
282.2589590015926
 21
132.7704852698904
 31
0.0
 11
282.2153329653272
 21
132.7710832630061
 31
0.0
 11
282.1718614157797
 21
132.771149844541
 31
0.0
  0
ENDSEC
  0
SECTION
  2
OBJECTS
  0
DICTIONARY
  5
C
330
0
100
AcDbDictionary
281
     1
  3
ACAD_GROUP
350
D
  3
ACAD_LAYOUT
350
1A
  3
ACAD_MLINESTYLE
350
17
  3
ACAD_PLOTSETTINGS
350
19
  3
ACAD_PLOTSTYLENAME
350
E
  0
DICTIONARY
  5
D
102
{ACAD_REACTORS
330
C
102
}
330
C
100
AcDbDictionary
281
     1
  0
DICTIONARY
  5
1A
102
{ACAD_REACTORS
330
C
102
}
330
C
100
AcDbDictionary
281
     1
  3
Layout1
350
1E
  3
Layout2
350
26
  3
Model
350
22
  0
DICTIONARY
  5
17
102
{ACAD_REACTORS
330
C
102
}
330
C
100
AcDbDictionary
281
     1
  3
Standard
350
18
  0
DICTIONARY
  5
19
102
{ACAD_REACTORS
330
C
102
}
330
C
100
AcDbDictionary
281
     1
  0
ACDBDICTIONARYWDFLT
  5
E
102
{ACAD_REACTORS
330
C
102
}
330
C
100
AcDbDictionary
281
     1
  3
Normal
350
F
100
AcDbDictionaryWithDefault
340
F
  0
LAYOUT
  5
1E
102
{ACAD_REACTORS
330
1A
102
}
330
1A
100
AcDbPlotSettings
  1

  2

  4

  6

 40
0.0
 41
0.0
 42
0.0
 43
0.0
 44
0.0
 45
0.0
 46
0.0
 47
0.0
 48
0.0
 49
0.0
140
0.0
141
0.0
142
1.0
143
1.0
 70
   688
 72
     0
 73
     0
 74
     5
  7

 75
    16
 76
     0
 77
     2
 78
   300
147
1.0
148
0.0
149
0.0
100
AcDbLayout
  1
Layout1
 70
     1
 71
     1
 10
0.0
 20
0.0
 11
0.0
 21
0.0
 12
0.0
 22
0.0
 32
0.0
 14
0.0
 24
0.0
 34
0.0
 15
0.0
 25
0.0
 35
0.0
146
0.0
 13
0.0
 23
0.0
 33
0.0
 16
1.0
 26
0.0
 36
0.0
 17
0.0
 27
1.0
 37
0.0
 76
     0
330
1B
  0
LAYOUT
  5
26
102
{ACAD_REACTORS
330
1A
102
}
330
1A
100
AcDbPlotSettings
  1

  2

  4

  6

 40
0.0
 41
0.0
 42
0.0
 43
0.0
 44
0.0
 45
0.0
 46
0.0
 47
0.0
 48
0.0
 49
0.0
140
0.0
141
0.0
142
1.0
143
1.0
 70
   688
 72
     0
 73
     0
 74
     5
  7

 75
    16
 76
     0
 77
     2
 78
   300
147
1.0
148
0.0
149
0.0
100
AcDbLayout
  1
Layout2
 70
     1
 71
     2
 10
0.0
 20
0.0
 11
0.0
 21
0.0
 12
0.0
 22
0.0
 32
0.0
 14
0.0
 24
0.0
 34
0.0
 15
0.0
 25
0.0
 35
0.0
146
0.0
 13
0.0
 23
0.0
 33
0.0
 16
1.0
 26
0.0
 36
0.0
 17
0.0
 27
1.0
 37
0.0
 76
     0
330
23
  0
LAYOUT
  5
22
102
{ACAD_REACTORS
330
1A
102
}
330
1A
100
AcDbPlotSettings
  1

  2

  4

  6

 40
0.0
 41
0.0
 42
0.0
 43
0.0
 44
0.0
 45
0.0
 46
0.0
 47
0.0
 48
0.0
 49
0.0
140
0.0
141
0.0
142
1.0
143
1.0
 70
  1712
 72
     0
 73
     0
 74
     0
  7

 75
     0
 76
     0
 77
     2
 78
   300
147
1.0
148
0.0
149
0.0
100
AcDbLayout
  1
Model
 70
     1
 71
     0
 10
0.0
 20
0.0
 11
0.0
 21
0.0
 12
0.0
 22
0.0
 32
0.0
 14
198.580394091661
 24
109.3337065269408
 34
0.0
 15
307.9289026502457
 25
250.8603847856
 35
0.0
146
0.0
 13
0.0
 23
0.0
 33
0.0
 16
1.0
 26
0.0
 36
0.0
 17
0.0
 27
1.0
 37
0.0
 76
     0
330
1F
  0
MLINESTYLE
  5
18
102
{ACAD_REACTORS
330
17
102
}
330
17
100
AcDbMlineStyle
  2
Standard
 70
     0
  3

 62
   256
 51
90.0
 52
90.0
 71
     2
 49
0.5
 62
   256
  6
BYLAYER
 49
-0.5
 62
   256
  6
BYLAYER
  0
ACDBPLACEHOLDER
  5
F
102
{ACAD_REACTORS
330
E
102
}
330
E
  0
ENDSEC
  0
EOF
