  0
SECTION
  2
HEADER
  9
$ACADVER
  1
AC1018
  9
$ACADMAINTVER
 70
     0
  9
$DWGCODEPAGE
  3
ANSI_1252
  9
$INSBASE
 10
0.0
 20
0.0
 30
0.0
  9
$EXTMIN
 10
326.121591763685
 20
117.1597807277355
 30
0.0
  9
$EXTMAX
 10
401.121591763685
 20
250.8603847856
 30
0.0
  9
$LIMMIN
 10
0.0
 20
0.0
  9
$LIMMAX
 10
12.0
 20
9.0
  9
$ORTHOMODE
 70
     0
  9
$REGENMODE
 70
     1
  9
$FILLMODE
 70
     1
  9
$QTEXTMODE
 70
     0
  9
$MIRRTEXT
 70
     1
  9
$LTSCALE
 40
1.0
  9
$ATTMODE
 70
     1
  9
$TEXTSIZE
 40
0.2
  9
$TRACEWID
 40
0.05
  9
$TEXTSTYLE
  7
Standard
  9
$CLAYER
  8
0
  9
$CELTYPE
  6
ByLayer
  9
$CECOLOR
 62
   256
  9
$CELTSCALE
 40
1.0
  9
$DISPSILH
 70
     0
  9
$DIMSCALE
 40
1.0
  9
$DIMASZ
 40
0.18
  9
$DIMEXO
 40
0.0625
  9
$DIMDLI
 40
0.38
  9
$DIMRND
 40
0.0
  9
$DIMDLE
 40
0.0
  9
$DIMEXE
 40
0.18
  9
$DIMTP
 40
0.0
  9
$DIMTM
 40
0.0
  9
$DIMTXT
 40
0.18
  9
$DIMCEN
 40
0.09
  9
$DIMTSZ
 40
0.0
  9
$DIMTOL
 70
     0
  9
$DIMLIM
 70
     0
  9
$DIMTIH
 70
     1
  9
$DIMTOH
 70
     1
  9
$DIMSE1
 70
     0
  9
$DIMSE2
 70
     0
  9
$DIMTAD
 70
     0
  9
$DIMZIN
 70
     0
  9
$DIMBLK
  1

  9
$DIMASO
 70
     1
  9
$DIMSHO
 70
     1
  9
$DIMPOST
  1

  9
$DIMAPOST
  1

  9
$DIMALT
 70
     0
  9
$DIMALTD
 70
     2
  9
$DIMALTF
 40
25.4
  9
$DIMLFAC
 40
1.0
  9
$DIMTOFL
 70
     0
  9
$DIMTVP
 40
0.0
  9
$DIMTIX
 70
     0
  9
$DIMSOXD
 70
     0
  9
$DIMSAH
 70
     0
  9
$DIMBLK1
  1

  9
$DIMBLK2
  1

  9
$DIMSTYLE
  2
Standard
  9
$DIMCLRD
 70
     0
  9
$DIMCLRE
 70
     0
  9
$DIMCLRT
 70
     0
  9
$DIMTFAC
 40
1.0
  9
$DIMGAP
 40
0.09
  9
$DIMJUST
 70
     0
  9
$DIMSD1
 70
     0
  9
$DIMSD2
 70
     0
  9
$DIMTOLJ
 70
     1
  9
$DIMTZIN
 70
     0
  9
$DIMALTZ
 70
     0
  9
$DIMALTTZ
 70
     0
  9
$DIMUPT
 70
     0
  9
$DIMDEC
 70
     4
  9
$DIMTDEC
 70
     4
  9
$DIMALTU
 70
     2
  9
$DIMALTTD
 70
     2
  9
$DIMTXSTY
  7
Standard
  9
$DIMAUNIT
 70
     0
  9
$DIMADEC
 70
     0
  9
$DIMALTRND
 40
0.0
  9
$DIMAZIN
 70
     0
  9
$DIMDSEP
 70
    46
  9
$DIMATFIT
 70
     3
  9
$DIMFRAC
 70
     0
  9
$DIMLDRBLK
  1

  9
$DIMLUNIT
 70
     2
  9
$DIMLWD
 70
    -2
  9
$DIMLWE
 70
    -2
  9
$DIMTMOVE
 70
     0
  9
$LUNITS
 70
     2
  9
$LUPREC
 70
     4
  9
$SKETCHINC
 40
0.1
  9
$FILLETRAD
 40
0.5
  9
$AUNITS
 70
     0
  9
$AUPREC
 70
     0
  9
$MENU
  1
.
  9
$ELEVATION
 40
0.0
  9
$PELEVATION
 40
0.0
  9
$THICKNESS
 40
0.0
  9
$LIMCHECK
 70
     0
  9
$CHAMFERA
 40
0.5
  9
$CHAMFERB
 40
0.5
  9
$CHAMFERC
 40
1.0
  9
$CHAMFERD
 40
0.0
  9
$SKPOLY
 70
     0
  9
$TDCREATE
 40
2456388.482129861
  9
$TDUCREATE
 40
2456388.398796528
  9
$TDUPDATE
 40
2456388.482129873
  9
$TDUUPDATE
 40
2456388.398796539
  9
$TDINDWG
 40
0.0000000116
  9
$TDUSRTIMER
 40
0.0000000116
  9
$USRTIMER
 70
     1
  9
$ANGBASE
 50
0.0
  9
$ANGDIR
 70
     0
  9
$PDMODE
 70
     0
  9
$PDSIZE
 40
0.0
  9
$PLINEWID
 40
0.0
  9
$SPLFRAME
 70
     0
  9
$SPLINETYPE
 70
     6
  9
$SPLINESEGS
 70
     8
  9
$HANDSEED
  5
171
  9
$SURFTAB1
 70
     6
  9
$SURFTAB2
 70
     6
  9
$SURFTYPE
 70
     6
  9
$SURFU
 70
     6
  9
$SURFV
 70
     6
  9
$UCSBASE
  2

  9
$UCSNAME
  2

  9
$UCSORG
 10
0.0
 20
0.0
 30
0.0
  9
$UCSXDIR
 10
1.0
 20
0.0
 30
0.0
  9
$UCSYDIR
 10
0.0
 20
1.0
 30
0.0
  9
$UCSORTHOREF
  2

  9
$UCSORTHOVIEW
 70
     0
  9
$UCSORGTOP
 10
0.0
 20
0.0
 30
0.0
  9
$UCSORGBOTTOM
 10
0.0
 20
0.0
 30
0.0
  9
$UCSORGLEFT
 10
0.0
 20
0.0
 30
0.0
  9
$UCSORGRIGHT
 10
0.0
 20
0.0
 30
0.0
  9
$UCSORGFRONT
 10
0.0
 20
0.0
 30
0.0
  9
$UCSORGBACK
 10
0.0
 20
0.0
 30
0.0
  9
$PUCSBASE
  2

  9
$PUCSNAME
  2

  9
$PUCSORG
 10
0.0
 20
0.0
 30
0.0
  9
$PUCSXDIR
 10
1.0
 20
0.0
 30
0.0
  9
$PUCSYDIR
 10
0.0
 20
1.0
 30
0.0
  9
$PUCSORTHOREF
  2

  9
$PUCSORTHOVIEW
 70
     0
  9
$PUCSORGTOP
 10
0.0
 20
0.0
 30
0.0
  9
$PUCSORGBOTTOM
 10
0.0
 20
0.0
 30
0.0
  9
$PUCSORGLEFT
 10
0.0
 20
0.0
 30
0.0
  9
$PUCSORGRIGHT
 10
0.0
 20
0.0
 30
0.0
  9
$PUCSORGFRONT
 10
0.0
 20
0.0
 30
0.0
  9
$PUCSORGBACK
 10
0.0
 20
0.0
 30
0.0
  9
$USERI1
 70
     0
  9
$USERI2
 70
     0
  9
$USERI3
 70
     0
  9
$USERI4
 70
     0
  9
$USERI5
 70
     0
  9
$USERR1
 40
14.5
  9
$USERR2
 40
0.0
  9
$USERR3
 40
0.0
  9
$USERR4
 40
0.0
  9
$USERR5
 40
0.0
  9
$WORLDVIEW
 70
     1
  9
$SHADEDGE
 70
     3
  9
$SHADEDIF
 70
    70
  9
$TILEMODE
 70
     1
  9
$MAXACTVP
 70
    64
  9
$PINSBASE
 10
0.0
 20
0.0
 30
0.0
  9
$PLIMCHECK
 70
     0
  9
$PEXTMIN
 10
1.00000000000000E+20
 20
1.00000000000000E+20
 30
1.00000000000000E+20
  9
$PEXTMAX
 10
-1.00000000000000E+20
 20
-1.00000000000000E+20
 30
-1.00000000000000E+20
  9
$PLIMMIN
 10
0.0
 20
0.0
  9
$PLIMMAX
 10
12.0
 20
9.0
  9
$UNITMODE
 70
     0
  9
$VISRETAIN
 70
     1
  9
$PLINEGEN
 70
     0
  9
$PSLTSCALE
 70
     1
  9
$TREEDEPTH
 70
  3020
  9
$CMLSTYLE
  2
Standard
  9
$CMLJUST
 70
     0
  9
$CMLSCALE
 40
1.0
  9
$PROXYGRAPHICS
 70
     1
  9
$MEASUREMENT
 70
     1
  9
$CELWEIGHT
370
    -1
  9
$ENDCAPS
280
     0
  9
$JOINSTYLE
280
     0
  9
$LWDISPLAY
290
     0
  9
$INSUNITS
 70
     1
  9
$HYPERLINKBASE
  1

  9
$STYLESHEET
  1

  9
$XEDIT
290
     1
  9
$CEPSNTYPE
380
     0
  9
$PSTYLEMODE
290
     1
  9
$FINGERPRINTGUID
  2
{2FF616A7-75DB-4E54-B187-D82A1ED0527E}
  9
$VERSIONGUID
  2
{FAEB1C32-E019-11D5-929B-00C0DF256EC4}
  9
$EXTNAMES
290
     1
  9
$PSVPSCALE
 40
0.0
  9
$OLESTARTUP
290
     0
  9
$SORTENTS
280
   127
  9
$INDEXCTL
280
     0
  9
$HIDETEXT
280
     1
  9
$XCLIPFRAME
290
     0
  9
$HALOGAP
280
     0
  9
$OBSCOLOR
 70
   257
  9
$OBSLTYPE
280
     0
  9
$INTERSECTIONDISPLAY
280
     0
  9
$INTERSECTIONCOLOR
 70
   257
  9
$DIMASSOC
280
     2
  9
$PROJECTNAME
  1

  0
ENDSEC
  0
SECTION
  2
CLASSES
  0
CLASS
  1
ACDBDICTIONARYWDFLT
  2
AcDbDictionaryWithDefault
  3
ObjectDBX Classes
 90
        0
 91
        3
280
     0
281
     0
  0
CLASS
  1

  2
exOdDbCircle
  3

 90
        0
 91
        3
280
     0
281
     1
  0
CLASS
  1

  2
exOdDbSpline
  3

 90
        0
 91
        3
280
     0
281
     1
  0
ENDSEC
  0
SECTION
  2
TABLES
  0
TABLE
  2
VPORT
  5
8
330
0
100
AcDbSymbolTable
 70
     1
  0
VPORT
  5
29
330
8
100
AcDbSymbolTableRecord
100
AcDbViewportTableRecord
  2
*Active
 70
     0
 10
0.0
 20
0.0
 11
1.0
 21
1.0
 12
363.621591763685
 22
184.0100827566677
 13
0.0
 23
0.0
 14
0.5
 24
0.5
 15
0.5
 25
0.5
 16
0.0
 26
0.0
 36
1.0
 17
0.0
 27
0.0
 37
0.0
 40
147.070664463651
 41
1.60267857142857
 42
50.0
 43
0.0
 44
0.0
 50
0.0
 51
0.0
 71
     0
 72
   100
 73
     1
 74
     3
 75
     0
 76
     0
 77
     0
 78
     0
281
     0
 65
     1
110
0.0
120
0.0
130
0.0
111
1.0
121
0.0
131
0.0
112
0.0
122
1.0
132
0.0
 79
     0
146
0.0
  0
ENDTAB
  0
TABLE
  2
LTYPE
  5
5
330
0
100
AcDbSymbolTable
 70
     8
  0
LTYPE
  5
14
330
5
100
AcDbSymbolTableRecord
100
AcDbLinetypeTableRecord
  2
ByBlock
 70
     0
  3

 72
    65
 73
     0
 40
0.0
  0
LTYPE
  5
15
330
5
100
AcDbSymbolTableRecord
100
AcDbLinetypeTableRecord
  2
ByLayer
 70
     0
  3

 72
    65
 73
     0
 40
0.0
  0
LTYPE
  5
16
330
5
100
AcDbSymbolTableRecord
100
AcDbLinetypeTableRecord
  2
Continuous
 70
     0
  3
Solid line
 72
    65
 73
     0
 40
0.0
  0
LTYPE
  5
2A
330
5
100
AcDbSymbolTableRecord
100
AcDbLinetypeTableRecord
  2
DASHED
 70
     0
  3
Dashed
 72
    65
 73
     2
 40
15.0
 49
7.0
 74
     0
 49
-8.0
 74
     0
  0
LTYPE
  5
2B
330
5
100
AcDbSymbolTableRecord
100
AcDbLinetypeTableRecord
  2
DOTTED
 70
     0
  3
Dotted
 72
    65
 73
     2
 40
1.0
 49
0.0
 74
     0
 49
-1.0
 74
     0
  0
LTYPE
  5
2C
330
5
100
AcDbSymbolTableRecord
100
AcDbLinetypeTableRecord
  2
DOT_CENTER
 70
     0
  3
Dot_Center
 72
    65
 73
     4
 40
14.0
 49
12.0
 74
     0
 49
-1.0
 74
     0
 49
0.0
 74
     0
 49
-1.0
 74
     0
  0
LTYPE
  5
2D
330
5
100
AcDbSymbolTableRecord
100
AcDbLinetypeTableRecord
  2
LONG_DASHED
 70
     0
  3
Long_Dashed
 72
    65
 73
     2
 40
15.0
 49
10.0
 74
     0
 49
-5.0
 74
     0
  0
LTYPE
  5
2E
330
5
100
AcDbSymbolTableRecord
100
AcDbLinetypeTableRecord
  2
DASH_CENTER
 70
     0
  3
Dash_Center
 72
    65
 73
     4
 40
14.0
 49
11.0
 74
     0
 49
-1.0
 74
     0
 49
1.0
 74
     0
 49
-1.0
 74
     0
  0
LTYPE
  5
2F
330
5
100
AcDbSymbolTableRecord
100
AcDbLinetypeTableRecord
  2
PHANTOM
 70
     0
  3
Phantom
 72
    65
 73
     6
 40
13.0
 49
10.0
 74
     0
 49
-1.0
 74
     0
 49
0.0
 74
     0
 49
-1.0
 74
     0
 49
0.0
 74
     0
 49
-1.0
 74
     0
  0
LTYPE
  5
30
330
5
100
AcDbSymbolTableRecord
100
AcDbLinetypeTableRecord
  2
CENTER_DASH_DASH
 70
     0
  3
Center_Dash_Dash
 72
    65
 73
     6
 40
14.0
 49
9.0
 74
     0
 49
-1.0
 74
     0
 49
1.0
 74
     0
 49
-1.0
 74
     0
 49
1.0
 74
     0
 49
-1.0
 74
     0
  0
ENDTAB
  0
TABLE
  2
LAYER
  5
2
330
0
100
AcDbSymbolTable
 70
     7
  0
LAYER
  5
10
330
2
100
AcDbSymbolTableRecord
100
AcDbLayerTableRecord
  2
0
 70
     0
 62
     7
  6
Continuous
370
    -3
390
F
  0
LAYER
  5
31
330
2
100
AcDbSymbolTableRecord
100
AcDbLayerTableRecord
  2
1
 70
     0
 62
     7
  6
Continuous
370
    -3
390
F
  0
LAYER
  5
32
330
2
100
AcDbSymbolTableRecord
100
AcDbLayerTableRecord
  2
A_ACHSEN
 70
     0
 62
     7
  6
Continuous
370
    -3
390
F
  0
LAYER
  5
33
330
2
100
AcDbSymbolTableRecord
100
AcDbLayerTableRecord
  2
A_BEMASSUNGEN
 70
     0
 62
     7
  6
Continuous
370
    -3
390
F
  0
LAYER
  5
34
330
2
100
AcDbSymbolTableRecord
100
AcDbLayerTableRecord
  2
A_NOTIZEN_SYMB
 70
     0
 62
     7
  6
Continuous
370
    -3
390
F
  0
LAYER
  5
35
330
2
100
AcDbSymbolTableRecord
100
AcDbLayerTableRecord
  2
A_RUNDUNGEN
 70
     0
 62
     7
  6
Continuous
370
    -3
390
F
  0
LAYER
  5
36
330
2
100
AcDbSymbolTableRecord
100
AcDbLayerTableRecord
  2
DEFAULT_2
 70
     0
 62
     7
  6
Continuous
370
    -3
390
F
  0
ENDTAB
  0
TABLE
  2
STYLE
  5
3
330
0
100
AcDbSymbolTable
 70
     1
  0
STYLE
  5
11
330
3
100
AcDbSymbolTableRecord
100
AcDbTextStyleTableRecord
  2
Standard
 70
     0
 40
0.0
 41
1.0
 50
0.0
 71
     0
 42
0.2
  3
txt
  4

  0
ENDTAB
  0
TABLE
  2
VIEW
  5
6
330
0
100
AcDbSymbolTable
 70
     0
  0
ENDTAB
  0
TABLE
  2
UCS
  5
7
330
0
100
AcDbSymbolTable
 70
     0
  0
ENDTAB
  0
TABLE
  2
APPID
  5
9
330
0
100
AcDbSymbolTable
 70
     1
  0
APPID
  5
12
330
9
100
AcDbSymbolTableRecord
100
AcDbRegAppTableRecord
  2
ACAD
 70
     0
  0
ENDTAB
  0
TABLE
  2
DIMSTYLE
  5
A
330
0
100
AcDbSymbolTable
 70
     1
100
AcDbDimStyleTable
  0
DIMSTYLE
105
27
330
A
100
AcDbSymbolTableRecord
100
AcDbDimStyleTableRecord
  2
Standard
 70
     0
340
11
  0
ENDTAB
  0
TABLE
  2
BLOCK_RECORD
  5
1
330
0
100
AcDbSymbolTable
 70
     1
  0
BLOCK_RECORD
  5
1F
330
1
100
AcDbSymbolTableRecord
100
AcDbBlockTableRecord
  2
*Model_Space
340
22
  0
BLOCK_RECORD
  5
1B
330
1
100
AcDbSymbolTableRecord
100
AcDbBlockTableRecord
  2
*Paper_Space
340
1E
  0
BLOCK_RECORD
  5
23
330
1
100
AcDbSymbolTableRecord
100
AcDbBlockTableRecord
  2
*Paper_Space0
340
26
  0
ENDTAB
  0
ENDSEC
  0
SECTION
  2
BLOCKS
  0
BLOCK
  5
20
330
1F
100
AcDbEntity
  8
0
100
AcDbBlockBegin
  2
*Model_Space
 70
     0
 71
     0
 10
0.0
 20
0.0
 30
0.0
  3
*Model_Space
  1

  0
ENDBLK
  5
21
330
1F
100
AcDbEntity
  8
0
100
AcDbBlockEnd
  0
BLOCK
  5
1C
330
1B
100
AcDbEntity
 67
     1
  8
0
100
AcDbBlockBegin
  2
*Paper_Space
 70
     0
 71
     0
 10
0.0
 20
0.0
 30
0.0
  3
*Paper_Space
  1

  0
ENDBLK
  5
1D
330
1B
100
AcDbEntity
 67
     1
  8
0
100
AcDbBlockEnd
  0
BLOCK
  5
24
330
23
100
AcDbEntity
  8
0
100
AcDbBlockBegin
  2
*Paper_Space0
 70
     0
 71
     0
 10
0.0
 20
0.0
 30
0.0
  3
*Paper_Space0
  1

  0
ENDBLK
  5
25
330
23
100
AcDbEntity
  8
0
100
AcDbBlockEnd
  0
ENDSEC
  0
SECTION
  2
ENTITIES
  0
POINT
  5
37
330
1F
100
AcDbEntity
  8
A_BEMASSUNGEN
 62
     7
100
AcDbPoint
 10
376.621591763685
 20
181.8603847856
 30
0.0
  0
POINT
  5
38
330
1F
100
AcDbEntity
  8
A_BEMASSUNGEN
 62
     7
100
AcDbPoint
 10
369.312043860485
 20
209.4979157627
 30
0.0
  0
POINT
  5
39
330
1F
100
AcDbEntity
  8
A_BEMASSUNGEN
 62
     7
100
AcDbPoint
 10
361.637181703585
 20
204.6084893268
 30
0.0
  0
POINT
  5
3A
330
1F
100
AcDbEntity
  8
A_BEMASSUNGEN
 62
     7
100
AcDbPoint
 10
366.550661752085
 20
210.1100994377
 30
0.0
  0
POINT
  5
3B
330
1F
100
AcDbEntity
  8
A_BEMASSUNGEN
 62
     7
100
AcDbPoint
 10
386.121591763685
 20
181.8603847856
 30
0.0
  0
POINT
  5
3C
330
1F
100
AcDbEntity
  8
A_BEMASSUNGEN
 62
     7
100
AcDbPoint
 10
386.121591763685
 20
191.3603847856
 30
0.0
  0
POINT
  5
3D
330
1F
100
AcDbEntity
  8
A_BEMASSUNGEN
 62
     7
100
AcDbPoint
 10
326.121591763685
 20
166.8603847856
 30
0.0
  0
POINT
  5
3E
330
1F
100
AcDbEntity
  8
A_BEMASSUNGEN
 62
     7
100
AcDbPoint
 10
326.121591763685
 20
180.8603847856
 30
0.0
  0
POINT
  5
3F
330
1F
100
AcDbEntity
  8
A_BEMASSUNGEN
 62
     7
100
AcDbPoint
 10
356.121591763685
 20
213.8603847856
 30
0.0
  0
POINT
  5
40
330
1F
100
AcDbEntity
  8
A_BEMASSUNGEN
 62
     7
100
AcDbPoint
 10
386.121591763685
 20
166.8603847856
 30
0.0
  0
POINT
  5
41
330
1F
100
AcDbEntity
  8
A_BEMASSUNGEN
 62
     7
100
AcDbPoint
 10
356.121591763685
 20
185.8603847856
 30
0.0
  0
POINT
  5
42
330
1F
100
AcDbEntity
  8
A_BEMASSUNGEN
 62
     7
100
AcDbPoint
 10
348.1203654605621
 20
155.6924872192016
 30
0.0
  0
POINT
  5
43
330
1F
100
AcDbEntity
  8
A_BEMASSUNGEN
 62
     7
100
AcDbPoint
 10
371.1203654605621
 20
159.6924872192015
 30
0.0
  0
POINT
  5
44
330
1F
100
AcDbEntity
  8
A_BEMASSUNGEN
 62
     7
100
AcDbPoint
 10
371.1203654605621
 20
159.6924872192015
 30
0.0
  0
POINT
  5
45
330
1F
100
AcDbEntity
  8
A_BEMASSUNGEN
 62
     7
100
AcDbPoint
 10
348.1203654605621
 20
155.6924872192016
 30
0.0
  0
POINT
  5
46
330
1F
100
AcDbEntity
  8
A_BEMASSUNGEN
 62
     7
100
AcDbPoint
 10
348.1203654605621
 20
155.6924872192016
 30
0.0
  0
POINT
  5
47
330
1F
100
AcDbEntity
  8
A_BEMASSUNGEN
 62
     7
100
AcDbPoint
 10
348.1203654605621
 20
127.6924872192015
 30
0.0
  0
POINT
  5
48
330
1F
100
AcDbEntity
  8
A_BEMASSUNGEN
 62
     7
100
AcDbPoint
 10
354.1203654605622
 20
142.4531825666014
 30
0.0
  0
POINT
  5
49
330
1F
100
AcDbEntity
  8
A_BEMASSUNGEN
 62
     7
100
AcDbPoint
 10
382.5484878572922
 20
195.6594223010324
 30
0.0
  0
POINT
  5
4A
330
1F
100
AcDbEntity
  8
A_BEMASSUNGEN
 62
     7
100
AcDbPoint
 10
398.6232231687132
 20
156.4337876373305
 30
0.0
  0
POINT
  5
4B
330
1F
100
AcDbEntity
  8
A_BEMASSUNGEN
 62
     7
100
AcDbPoint
 10
391.2693447953822
 20
151.8872654459695
 30
0.0
  0
LINE
  5
4C
330
1F
100
AcDbEntity
  8
A_ACHSEN
  6
Continuous
 62
     7
100
AcDbLine
 10
374.016226801285
 20
188.8995987718
 30
0.0
 11
376.2541555549065
 21
190.3253166265696
 31
0.0
  0
LINE
  5
4D
330
1F
100
AcDbEntity
  8
A_ACHSEN
  6
Continuous
 62
     7
100
AcDbLine
 10
366.550661752085
 20
210.1100994377
 30
0.0
 11
362.249365378485
 21
207.3698714351
 31
0.0
  0
LINE
  5
4E
330
1F
100
AcDbEntity
  8
A_ACHSEN
  6
Continuous
 62
     7
100
AcDbLine
 10
361.637181703585
 20
204.6084893268
 30
0.0
 11
371.254844692985
 21
189.5117824467
 31
0.0
  0
LINE
  5
4F
330
1F
100
AcDbEntity
  8
1
  6
DOT_CENTER
 62
     2
100
AcDbLine
 10
363.9632809746072
 20
209.4255182851365
 30
0.0
 11
376.7535603247702
 21
189.3488012616444
 31
0.0
  0
LINE
  5
50
330
1F
100
AcDbEntity
  8
0
  6
Continuous
 62
     7
100
AcDbLine
 10
375.121591763685
 20
181.8603847856
 30
0.0
 11
386.121591763685
 21
181.8603847856
 31
0.0
  0
LINE
  5
51
330
1F
100
AcDbEntity
  8
0
  6
Continuous
 62
     7
100
AcDbLine
 10
359.621591763685
 20
190.8603847856
 30
0.0
 11
359.621591763685
 21
208.8603847856
 31
0.0
  0
LINE
  5
52
330
1F
100
AcDbEntity
  8
0
  6
Continuous
 62
     7
100
AcDbLine
 10
368.621591763685
 20
188.3603847856
 30
0.0
 11
359.621591763685
 21
190.8603847856
 31
0.0
  0
LINE
  5
53
330
1F
100
AcDbEntity
  8
0
  6
Continuous
 62
     7
100
AcDbLine
 10
368.621591763685
 20
188.3603847856
 30
0.0
 11
371.121591763685
 21
188.3603847856
 31
0.0
  0
LINE
  5
54
330
1F
100
AcDbEntity
  8
A_RUNDUNGEN
  6
Continuous
 62
     7
100
AcDbLine
 10
375.121591763685
 20
184.3603847856
 30
0.0
 11
375.121591763685
 21
181.8603847856
 31
0.0
  0
LINE
  5
55
330
1F
100
AcDbEntity
  8
0
  6
Continuous
 62
     7
100
AcDbLine
 10
386.121591763685
 20
181.8603847856
 30
0.0
 11
386.121591763685
 21
182.2145896399829
 31
0.0
  0
LINE
  5
56
330
1F
100
AcDbEntity
  8
0
  6
Continuous
 62
     7
100
AcDbLine
 10
359.621591763685
 20
208.8603847856
 30
0.0
 11
368.621591763685
 21
211.3603847856
 31
0.0
  0
LINE
  5
57
330
1F
100
AcDbEntity
  8
0
  6
Continuous
 62
     7
100
AcDbLine
 10
368.621591763685
 20
211.3603847856
 30
0.0
 11
386.121591763685
 21
211.3603847856
 31
0.0
  0
LINE
  5
58
330
1F
100
AcDbEntity
  8
0
  6
Continuous
 62
     7
100
AcDbLine
 10
326.121591763685
 20
180.8603847856
 30
0.0
 11
326.121591763685
 21
166.8603847856
 31
0.0
  0
LINE
  5
59
330
1F
100
AcDbEntity
  8
0
  6
Continuous
 62
     7
100
AcDbLine
 10
341.121591763685
 20
250.8603847856
 30
0.0
 11
341.121591763685
 21
180.8603847856
 31
0.0
  0
LINE
  5
5A
330
1F
100
AcDbEntity
  8
0
  6
Continuous
 62
     7
100
AcDbLine
 10
326.121591763685
 20
166.8603847856
 30
0.0
 11
386.121591763685
 21
166.8603847856
 31
0.0
  0
LINE
  5
5B
330
1F
100
AcDbEntity
  8
0
  6
Continuous
 62
     7
100
AcDbLine
 10
356.121591763685
 20
185.8603847856
 30
0.0
 11
356.121591763685
 21
213.8603847856
 31
0.0
  0
LINE
  5
5C
330
1F
100
AcDbEntity
  8
0
  6
Continuous
 62
     7
100
AcDbLine
 10
357.121591763685
 20
212.1187150348
 30
0.0
 11
357.121591763685
 21
187.6020545365
 31
0.0
  0
LINE
  5
5D
330
1F
100
AcDbEntity
  8
0
  6
Continuous
 62
     7
100
AcDbLine
 10
359.121591763685
 20
189.3825261173
 30
0.0
 11
359.121591763685
 21
210.3167912462
 31
0.0
  0
LINE
  5
5E
330
1F
100
AcDbEntity
  8
0
  6
Continuous
 62
     7
100
AcDbLine
 10
386.121591763685
 20
180.8603847856
 30
0.0
 11
372.121591763685
 21
180.8603847856
 31
0.0
  0
LINE
  5
5F
330
1F
100
AcDbEntity
  8
0
  6
Continuous
 62
     7
100
AcDbLine
 10
363.621591763685
 20
185.8603847856
 30
0.0
 11
357.121591763685
 21
187.6020545365
 31
0.0
  0
LINE
  5
60
330
1F
100
AcDbEntity
  8
0
  6
Continuous
 62
     7
100
AcDbLine
 10
367.121591763685
 20
187.2389325778
 30
0.0
 11
359.121591763685
 21
189.3825261173
 31
0.0
  0
LINE
  5
61
330
1F
100
AcDbEntity
  8
0
  6
Continuous
 62
     7
100
AcDbLine
 10
371.621591763685
 20
185.8603847856
 30
0.0
 11
371.621591763685
 21
187.1603847856
 31
0.0
  0
LINE
  5
62
330
1F
100
AcDbEntity
  8
0
  6
Continuous
 62
     7
100
AcDbLine
 10
372.121591763685
 20
180.8603847856
 30
0.0
 11
372.121591763685
 21
185.8603847856
 31
0.0
  0
LINE
  5
63
330
1F
100
AcDbEntity
  8
0
  6
Continuous
 62
     7
100
AcDbLine
 10
371.621591763685
 20
187.1603847856
 30
0.0
 11
367.121591763685
 21
187.2389325778
 31
0.0
  0
LINE
  5
64
330
1F
100
AcDbEntity
  8
0
  6
Continuous
 62
     7
100
AcDbLine
 10
384.121591763685
 20
213.8603847856
 30
0.0
 11
384.121591763685
 21
213.5603847856
 31
0.0
  0
LINE
  5
65
330
1F
100
AcDbEntity
  8
0
  6
Continuous
 62
     7
100
AcDbLine
 10
386.121591763685
 20
166.8603847856
 30
0.0
 11
386.121591763685
 21
181.8603847856
 31
0.0
  0
LINE
  5
66
330
1F
100
AcDbEntity
  8
0
  6
Continuous
 62
     7
100
AcDbLine
 10
386.121591763685
 20
211.3603847856
 30
0.0
 11
386.121591763685
 21
213.8603847856
 31
0.0
  0
LINE
  5
67
330
1F
100
AcDbEntity
  8
0
  6
Continuous
 62
     7
100
AcDbLine
 10
387.121591763685
 20
212.0603847856
 30
0.0
 11
387.121591763685
 21
212.7603847856
 31
0.0
  0
LINE
  5
68
330
1F
100
AcDbEntity
  8
0
  6
Continuous
 62
     7
100
AcDbLine
 10
381.121591763685
 20
212.6603847856
 30
0.0
 11
384.121591763685
 21
213.5603847856
 31
0.0
  0
LINE
  5
69
330
1F
100
AcDbEntity
  8
0
  6
Continuous
 62
     7
100
AcDbLine
 10
386.121591763685
 20
211.6267321386
 30
0.0
 11
389.076553708885
 21
208.8603847856
 31
0.0
  0
LINE
  5
6A
330
1F
100
AcDbEntity
  8
0
  6
Continuous
 62
     7
100
AcDbLine
 10
389.471591763685
 20
209.8603847856
 30
0.0
 11
387.121591763685
 21
212.0603847856
 31
0.0
  0
LINE
  5
6B
330
1F
100
AcDbEntity
  8
0
  6
Continuous
 62
     7
100
AcDbLine
 10
400.121591763685
 20
212.0603847856
 30
0.0
 11
397.771591763685
 21
209.8603847856
 31
0.0
  0
LINE
  5
6C
330
1F
100
AcDbEntity
  8
0
  6
Continuous
 62
     7
100
AcDbLine
 10
398.166629818485
 20
208.8603847856
 30
0.0
 11
401.121591763685
 21
211.6267321386
 31
0.0
  0
LINE
  5
6D
330
1F
100
AcDbEntity
  8
0
  6
Continuous
 62
     7
100
AcDbLine
 10
367.121591763685
 20
212.4603847856
 30
0.0
 11
381.121591763685
 21
212.6603847856
 31
0.0
  0
LINE
  5
6E
330
1F
100
AcDbEntity
  8
0
  6
Continuous
 62
     7
100
AcDbLine
 10
397.771591763685
 20
209.8603847856
 30
0.0
 11
389.471591763685
 21
209.8603847856
 31
0.0
  0
LINE
  5
6F
330
1F
100
AcDbEntity
  8
0
  6
Continuous
 62
     7
100
AcDbLine
 10
387.121591763685
 20
212.7603847856
 30
0.0
 11
400.121591763685
 21
212.7603847856
 31
0.0
  0
LINE
  5
70
330
1F
100
AcDbEntity
  8
0
  6
Continuous
 62
     7
100
AcDbLine
 10
356.121591763685
 20
213.8603847856
 30
0.0
 11
363.621591763685
 21
213.8603847856
 31
0.0
  0
LINE
  5
71
330
1F
100
AcDbEntity
  8
0
  6
Continuous
 62
     7
100
AcDbLine
 10
400.121591763685
 20
212.7603847856
 30
0.0
 11
400.121591763685
 21
212.0603847856
 31
0.0
  0
LINE
  5
72
330
1F
100
AcDbEntity
  8
0
  6
Continuous
 62
     7
100
AcDbLine
 10
401.121591763685
 20
211.6267321386
 30
0.0
 11
401.121591763685
 21
213.8603847856
 31
0.0
  0
LINE
  5
73
330
1F
100
AcDbEntity
  8
0
  6
Continuous
 62
     7
100
AcDbLine
 10
401.121591763685
 20
213.8603847856
 30
0.0
 11
401.121591763685
 21
250.8603847856
 31
0.0
  0
LINE
  5
74
330
1F
100
AcDbEntity
  8
0
  6
Continuous
 62
     7
100
AcDbLine
 10
359.121591763685
 20
210.3167912462
 30
0.0
 11
367.121591763685
 21
212.4603847856
 31
0.0
  0
LINE
  5
75
330
1F
100
AcDbEntity
  8
0
  6
Continuous
 62
     7
100
AcDbLine
 10
357.121591763685
 20
212.1187150348
 30
0.0
 11
363.621591763685
 21
213.8603847856
 31
0.0
  0
LINE
  5
76
330
1F
100
AcDbEntity
  8
0
  6
Continuous
 62
     7
100
AcDbLine
 10
401.121591763685
 20
250.8603847856
 30
0.0
 11
341.121591763685
 21
250.8603847856
 31
0.0
  0
LINE
  5
77
330
1F
100
AcDbEntity
  8
0
  6
Continuous
 62
     7
100
AcDbLine
 10
356.121591763685
 20
185.8603847856
 30
0.0
 11
363.621591763685
 21
185.8603847856
 31
0.0
  0
LINE
  5
78
330
1F
100
AcDbEntity
  8
0
  6
DASHED
 62
     2
100
AcDbLine
 10
386.121591763685
 20
182.2145896399829
 30
0.0
 11
386.121591763685
 21
193.830368660734
 31
0.0
  0
LINE
  5
79
330
1F
100
AcDbEntity
  8
0
  6
Continuous
 62
     7
100
AcDbLine
 10
386.121591763685
 20
193.830368660734
 30
0.0
 11
386.121591763685
 21
211.3603847856
 31
0.0
  0
LINE
  5
7A
330
1F
100
AcDbEntity
  8
A_RUNDUNGEN
  6
Continuous
 62
     7
100
AcDbLine
 10
369.312043860485
 20
209.4979157627
 30
0.0
 11
377.1358058009247
 21
197.2170694860219
 31
0.0
  0
LINE
  5
7B
330
1F
100
AcDbEntity
  8
0
  6
Continuous
 62
     7
100
AcDbLine
 10
363.621591763685
 20
185.8603847856
 30
0.0
 11
371.621591763685
 21
185.8603847856
 31
0.0
  0
LINE
  5
7C
330
1F
100
AcDbEntity
  8
0
  6
Continuous
 62
     7
100
AcDbLine
 10
371.621591763685
 20
185.8603847856
 30
0.0
 11
372.121591763685
 21
185.8603847856
 31
0.0
  0
LINE
  5
7D
330
1F
100
AcDbEntity
  8
0
  6
Continuous
 62
     7
100
AcDbLine
 10
363.621591763685
 20
213.8603847856
 30
0.0
 11
384.121591763685
 21
213.8603847856
 31
0.0
  0
LINE
  5
7E
330
1F
100
AcDbEntity
  8
0
  6
Continuous
 62
     7
100
AcDbLine
 10
384.121591763685
 20
213.8603847856
 30
0.0
 11
386.121591763685
 21
213.8603847856
 31
0.0
  0
LINE
  5
7F
330
1F
100
AcDbEntity
  8
0
  6
Continuous
 62
     7
100
AcDbLine
 10
386.121591763685
 20
213.8603847856
 30
0.0
 11
401.121591763685
 21
213.8603847856
 31
0.0
  0
LINE
  5
80
330
1F
100
AcDbEntity
  8
0
  6
Continuous
 62
     7
100
AcDbLine
 10
372.121591763685
 20
180.8603847856
 30
0.0
 11
341.121591763685
 21
180.8603847856
 31
0.0
  0
LINE
  5
81
330
1F
100
AcDbEntity
  8
0
  6
Continuous
 62
     7
100
AcDbLine
 10
341.121591763685
 20
180.8603847856
 30
0.0
 11
326.121591763685
 21
180.8603847856
 31
0.0
  0
LINE
  5
82
330
1F
100
AcDbEntity
  8
1
  6
Continuous
 62
     7
100
AcDbLine
 10
389.076553708885
 20
208.8603847856
 30
0.0
 11
398.166629818485
 21
208.8603847856
 31
0.0
  0
LINE
  5
83
330
1F
100
AcDbEntity
  8
A_RUNDUNGEN
  6
DASHED
 62
     2
100
AcDbLine
 10
377.1358058009247
 20
197.2170694860219
 30
0.0
 11
378.929706849885
 21
194.4012088827
 31
0.0
  0
LINE
  5
84
330
1F
100
AcDbEntity
  8
A_ACHSEN
  6
DASHED
 62
     2
100
AcDbLine
 10
376.2541555549065
 20
190.3253166265696
 30
0.0
 11
378.317523174885
 21
191.6398267744
 31
0.0
  0
LINE
  5
85
330
1F
100
AcDbEntity
  8
0
  6
Continuous
 62
     7
100
AcDbLine
 10
396.6664486012656
 20
149.6624015499477
 30
0.0
 11
396.6654587528798
 21
149.7655149932984
 31
0.0
  0
LINE
  5
86
330
1F
100
AcDbEntity
  8
0
  6
Continuous
 62
     7
100
AcDbLine
 10
381.4208862306282
 20
191.0781743803086
 30
0.0
 11
380.9213813425877
 21
191.0559287779645
 31
0.0
  0
LINE
  5
87
330
1F
100
AcDbEntity
  8
0
  6
Continuous
 62
     7
100
AcDbLine
 10
381.3218021847824
 20
182.0648407932356
 30
0.0
 11
385.6175442219305
 21
182.2561529733952
 31
0.0
  0
LINE
  5
88
330
1F
100
AcDbEntity
  8
0
  6
Continuous
 62
     7
100
AcDbLine
 10
391.6464009125165
 20
166.0082950529069
 30
0.0
 11
391.7463018901248
 21
166.0127441733756
 31
0.0
  0
LINE
  5
89
330
1F
100
AcDbEntity
  8
0
  6
Continuous
 62
     7
100
AcDbLine
 10
387.7045461834691
 20
180.3471158306098
 30
0.0
 11
387.8936338033944
 21
176.1013242822656
 31
0.0
  0
LINE
  5
8A
330
1F
100
AcDbEntity
  8
0
  6
Continuous
 62
     7
100
AcDbLine
 10
391.2265643608611
 20
168.6924394876729
 30
0.0
 11
391.3333506182859
 21
166.2946506243246
 31
0.0
  0
LINE
  5
8B
330
1F
100
AcDbEntity
  8
0
  6
Continuous
 62
     7
100
AcDbLine
 10
391.6714837739168
 20
158.7021763261091
 30
0.0
 11
391.9507995569498
 21
152.4303929518727
 31
0.0
  0
LINE
  5
8C
330
1F
100
AcDbEntity
  8
0
  6
Continuous
 62
     7
100
AcDbLine
 10
392.0577403229427
 20
159.0196757408088
 30
0.0
 11
391.9578393453346
 21
159.0152266203399
 31
0.0
  0
LINE
  5
8D
330
1F
100
AcDbEntity
  8
0
  6
Continuous
 62
     7
100
AcDbLine
 10
392.0593521843555
 20
165.7263886019578
 30
0.0
 11
392.3440958943605
 21
159.3327260350396
 31
0.0
  0
LINE
  5
8E
330
1F
100
AcDbEntity
  8
0
  6
Continuous
 62
     7
100
AcDbLine
 10
396.5530800823665
 20
161.4721072785572
 30
0.0
 11
396.0163049229734
 21
173.5249081759085
 31
0.0
  0
LINE
  5
8F
330
1F
100
AcDbEntity
  8
A_RUNDUNGEN
  6
Continuous
 62
     7
100
AcDbLine
 10
396.5530800823665
 20
161.4721072785572
 30
0.0
 11
396.6654587528798
 21
149.7655149932984
 31
0.0
  0
LINE
  5
90
330
1F
100
AcDbEntity
  8
0
  6
DASHED
 62
     2
100
AcDbLine
 10
390.7770620265573
 20
149.9145660852182
 30
0.0
 11
396.6654587528798
 21
149.7655149932984
 31
0.0
  0
LINE
  5
91
330
1F
100
AcDbEntity
  8
0
  6
Continuous
 62
     7
100
AcDbLine
 10
389.6056447599263
 20
149.3685990691348
 30
0.0
 11
384.9721185996976
 21
148.3371279811685
 31
0.0
  0
LINE
  5
92
330
1F
100
AcDbEntity
  8
0
  6
Continuous
 62
     7
100
AcDbLine
 10
385.269171959121
 20
142.2563865160418
 30
0.0
 11
391.9704741019009
 21
143.7481660319129
 31
0.0
  0
LINE
  5
93
330
1F
100
AcDbEntity
  8
1
  6
DOT_CENTER
 62
     2
100
AcDbLine
 10
380.5932115968206
 20
137.7385319489936
 30
0.0
 11
379.9703347311844
 21
151.7246688141273
 31
0.0
  0
LINE
  5
94
330
1F
100
AcDbEntity
  8
1
  6
DOT_CENTER
 62
     2
100
AcDbLine
 10
387.2748415965693
 20
145.0430388143785
 30
0.0
 11
373.2887047314355
 21
144.4201619487423
 31
0.0
  0
LINE
  5
95
330
1F
100
AcDbEntity
  8
1
  6
DOT_CENTER
 62
     2
100
AcDbLine
 10
381.4085600339245
 20
180.1167717298777
 30
0.0
 11
380.8346234934455
 21
193.0039978413223
 31
0.0
  0
LINE
  5
96
330
1F
100
AcDbEntity
  8
1
  6
DOT_CENTER
 62
     2
100
AcDbLine
 10
387.5652048194074
 20
186.8473530558395
 30
0.0
 11
374.6779787079625
 21
186.2734165153605
 31
0.0
  0
LINE
  5
97
330
1F
100
AcDbEntity
  8
1
  6
DOT_CENTER
 62
     2
100
AcDbLine
 10
393.2001211166183
 20
169.330711873118
 30
0.0
 11
392.5772442509804
 21
183.316848738296
 31
0.0
  0
LINE
  5
98
330
1F
100
AcDbEntity
  8
1
  6
DOT_CENTER
 62
     2
100
AcDbLine
 10
399.8817511163883
 20
176.6352187385261
 30
0.0
 11
385.8956142512104
 21
176.012341872888
 31
0.0
  0
LINE
  5
99
330
1F
100
AcDbEntity
  8
1
  6
Continuous
 62
     7
100
AcDbLine
 10
391.1203654605621
 20
159.6924872192017
 30
0.0
 11
391.1203654605621
 21
159.5924872192016
 31
0.0
  0
LINE
  5
9A
330
1F
100
AcDbEntity
  8
0
  6
Continuous
 62
     7
100
AcDbLine
 10
383.6203654605622
 20
128.1924872192018
 30
0.0
 11
383.6203654605622
 21
127.6924872192017
 31
0.0
  0
LINE
  5
9B
330
1F
100
AcDbEntity
  8
0
  6
Continuous
 62
     7
100
AcDbLine
 10
379.6203654605623
 20
128.9924872192015
 30
0.0
 11
383.6203654605622
 21
128.1924872192018
 31
0.0
  0
LINE
  5
9C
330
1F
100
AcDbEntity
  8
0
  6
Continuous
 62
     7
100
AcDbLine
 10
360.9203654605623
 20
129.3188969333017
 30
0.0
 11
379.6203654605623
 21
128.9924872192015
 31
0.0
  0
LINE
  5
9D
330
1F
100
AcDbEntity
  8
0
  6
Continuous
 62
     7
100
AcDbLine
 10
391.1203654605623
 20
127.6924872192017
 30
0.0
 11
391.1203654605623
 21
121.6924872192017
 31
0.0
  0
LINE
  5
9E
330
1F
100
AcDbEntity
  8
0
  6
Continuous
 62
     7
100
AcDbLine
 10
348.1203654605621
 20
127.6924872192015
 30
0.0
 11
358.6203654605621
 21
127.6924872192016
 31
0.0
  0
LINE
  5
9F
330
1F
100
AcDbEntity
  8
0
  6
Continuous
 62
     7
100
AcDbLine
 10
371.1203654605621
 20
159.6924872192015
 30
0.0
 11
391.1203654605621
 21
159.6924872192017
 31
0.0
  0
LINE
  5
A0
330
1F
100
AcDbEntity
  8
0
  6
Continuous
 62
     7
100
AcDbLine
 10
357.9203654605622
 20
153.9620803621015
 30
0.0
 11
349.9203654605622
 21
152.4620803621016
 31
0.0
  0
LINE
  5
A1
330
1F
100
AcDbEntity
  8
0
  6
Continuous
 62
     7
100
AcDbLine
 10
358.6203654605621
 20
155.6924872192017
 30
0.0
 11
349.911605809162
 21
154.4685508685015
 31
0.0
  0
LINE
  5
A2
330
1F
100
AcDbEntity
  8
0
  6
Continuous
 62
     7
100
AcDbLine
 10
371.1203654605621
 20
154.1924872192016
 30
0.0
 11
357.9203654605622
 21
153.9620803621015
 31
0.0
  0
LINE
  5
A3
330
1F
100
AcDbEntity
  8
0
  6
Continuous
 62
     7
100
AcDbLine
 10
348.1203654605621
 20
155.6924872192016
 30
0.0
 11
358.6203654605621
 21
155.6924872192017
 31
0.0
  0
LINE
  5
A4
330
1F
100
AcDbEntity
  8
0
  6
Continuous
 62
     7
100
AcDbLine
 10
349.9116058091622
 20
128.9164235698016
 30
0.0
 11
358.6203654605621
 21
127.6924872192016
 31
0.0
  0
LINE
  5
A5
330
1F
100
AcDbEntity
  8
0
  6
Continuous
 62
     7
100
AcDbLine
 10
349.9203654605622
 20
131.8188969333016
 30
0.0
 11
360.9203654605623
 21
129.3188969333017
 31
0.0
  0
LINE
  5
A6
330
1F
100
AcDbEntity
  8
0
  6
Continuous
 62
     7
100
AcDbLine
 10
371.1203654605621
 20
159.6924872192015
 30
0.0
 11
371.1203654605621
 21
155.6924872192015
 31
0.0
  0
LINE
  5
A7
330
1F
100
AcDbEntity
  8
0
  6
Continuous
 62
     7
100
AcDbLine
 10
349.9203654605622
 20
152.4620803621016
 30
0.0
 11
349.9203654605622
 21
131.8188969333016
 31
0.0
  0
LINE
  5
A8
330
1F
100
AcDbEntity
  8
0
  6
Continuous
 62
     7
100
AcDbLine
 10
348.6203654605622
 20
152.9831487654015
 30
0.0
 11
348.6203654605621
 21
130.4018256729015
 31
0.0
  0
LINE
  5
A9
330
1F
100
AcDbEntity
  8
0
  6
Continuous
 62
     7
100
AcDbLine
 10
348.1203654605621
 20
155.6924872192016
 30
0.0
 11
348.1203654605621
 21
127.6924872192015
 31
0.0
  0
LINE
  5
AA
330
1F
100
AcDbEntity
  8
0
  6
Continuous
 62
     7
100
AcDbLine
 10
331.1203654605621
 20
163.6924872192016
 30
0.0
 11
391.1203654605621
 21
163.6924872192016
 31
0.0
  0
LINE
  5
AB
330
1F
100
AcDbEntity
  8
0
  6
DOT_CENTER
 62
     2
100
AcDbLine
 10
331.1203654605621
 20
121.6924872192016
 30
0.0
 11
331.1203654605621
 21
163.6924872192016
 31
0.0
  0
LINE
  5
AC
330
1F
100
AcDbEntity
  8
0
  6
Continuous
 62
     7
100
AcDbLine
 10
391.1203654605623
 20
121.6924872192017
 30
0.0
 11
331.1203654605621
 21
121.6924872192016
 31
0.0
  0
LINE
  5
AD
330
1F
100
AcDbEntity
  8
0
  6
Continuous
 62
     7
100
AcDbLine
 10
391.1203654605621
 20
163.6924872192016
 30
0.0
 11
391.1203654605621
 21
159.6924872192017
 31
0.0
  0
LINE
  5
AE
330
1F
100
AcDbEntity
  8
1
  6
DOT_CENTER
 62
     2
100
AcDbLine
 10
387.4580637163803
 20
144.1039597441427
 30
0.0
 11
352.4174065402999
 21
147.1695481199143
 31
0.0
  0
LINE
  5
AF
330
1F
100
AcDbEntity
  8
0
  6
Continuous
 62
     7
100
AcDbLine
 10
391.1203654605621
 20
159.5924872192016
 30
0.0
 11
391.1203654605623
 21
159.2931306709923
 31
0.0
  0
LINE
  5
B0
330
1F
100
AcDbEntity
  8
0
  6
Continuous
 62
     7
100
AcDbLine
 10
380.1203654605622
 20
159.5924872192017
 30
0.0
 11
391.1203654605621
 21
159.5924872192016
 31
0.0
  0
LINE
  5
B1
330
1F
100
AcDbEntity
  8
A_ACHSEN
  6
Continuous
 62
     7
100
AcDbLine
 10
385.787317649562
 20
141.6903875271017
 30
0.0
 11
385.8481100513041
 21
142.3852641533241
 31
0.0
  0
LINE
  5
B2
330
1F
100
AcDbEntity
  8
0
  6
Continuous
 62
     7
100
AcDbLine
 10
362.1203654605622
 20
153.8924872192015
 30
0.0
 11
354.1203654605622
 21
152.3924872192014
 31
0.0
  0
LINE
  5
B3
330
1F
100
AcDbEntity
  8
A_RUNDUNGEN
  6
Continuous
 62
     7
100
AcDbLine
 10
354.1203654605621
 20
151.5879414611968
 30
0.0
 11
356.2017617972674
 21
151.4058471476219
 31
0.0
  0
LINE
  5
B4
330
1F
100
AcDbEntity
  8
0
  6
Continuous
 62
     7
100
AcDbLine
 10
371.1203654605623
 20
129.3924872192015
 30
0.0
 11
371.1203654605621
 21
129.0924872192016
 31
0.0
  0
LINE
  5
B5
330
1F
100
AcDbEntity
  8
A_RUNDUNGEN
  6
Continuous
 62
     7
100
AcDbLine
 10
383.6206204695621
 20
139.8723052050016
 30
0.0
 11
381.9508042030597
 21
140.0183917726971
 31
0.0
  0
LINE
  5
B6
330
1F
100
AcDbEntity
  8
0
  6
Continuous
 62
     7
100
AcDbLine
 10
358.4093793015621
 20
131.3924872192017
 30
0.0
 11
369.1203654605623
 21
131.3924872192015
 31
0.0
  0
LINE
  5
B7
330
1F
100
AcDbEntity
  8
0
  6
Continuous
 62
     7
100
AcDbLine
 10
354.1203654605622
 20
133.3924872192015
 30
0.0
 11
358.4093793015621
 21
131.3924872192017
 31
0.0
  0
LINE
  5
B8
330
1F
100
AcDbEntity
  8
A_RUNDUNGEN
  6
Continuous
 62
     7
100
AcDbLine
 10
354.5578087781621
 20
151.0477611980016
 30
0.0
 11
354.5578087781622
 21
142.9168219622016
 31
0.0
  0
LINE
  5
B9
330
1F
100
AcDbEntity
  8
A_ACHSEN
  6
Continuous
 62
     7
100
AcDbLine
 10
354.1203654605622
 20
133.3924872192015
 30
0.0
 11
354.1203654605621
 21
142.4531825666969
 31
0.0
  0
LINE
  5
BA
330
1F
100
AcDbEntity
  8
A_ACHSEN
  6
Continuous
 62
     7
100
AcDbLine
 10
354.1203654605621
 20
151.5879414611968
 30
0.0
 11
354.1203654605622
 21
152.3924872192014
 31
0.0
  0
LINE
  5
BB
330
1F
100
AcDbEntity
  8
0
  6
Continuous
 62
     7
100
AcDbLine
 10
391.1203654605623
 20
129.0924872192017
 30
0.0
 11
371.1203654605621
 21
129.0924872192016
 31
0.0
  0
LINE
  5
BC
330
1F
100
AcDbEntity
  8
0
  6
DASHED
 62
     2
100
AcDbLine
 10
391.1203654605623
 20
159.2931306709923
 30
0.0
 11
391.1203654605623
 21
143.5589230116171
 31
0.0
  0
LINE
  5
BD
330
1F
100
AcDbEntity
  8
1
  6
Continuous
 62
     7
100
AcDbLine
 10
391.1203654605623
 20
127.6924872192017
 30
0.0
 11
391.1203654605623
 21
143.5589230116171
 31
0.0
  0
LINE
  5
BE
330
1F
100
AcDbEntity
  8
0
  6
Continuous
 62
     7
100
AcDbLine
 10
380.1203654605621
 20
154.8924872192016
 30
0.0
 11
380.1203654605622
 21
159.5924872192017
 31
0.0
  0
LINE
  5
BF
330
1F
100
AcDbEntity
  8
0
  6
Continuous
 62
     7
100
AcDbLine
 10
379.120365460562
 20
153.8924872192016
 30
0.0
 11
362.1203654605622
 21
153.8924872192015
 31
0.0
  0
LINE
  5
C0
330
1F
100
AcDbEntity
  8
A_RUNDUNGEN
  6
Continuous
 62
     7
100
AcDbLine
 10
354.9900034688816
 20
142.3771008837465
 30
0.0
 11
354.1203654605621
 21
142.4531825666969
 31
0.0
  0
LINE
  5
C1
330
1F
100
AcDbEntity
  8
A_RUNDUNGEN
  6
Continuous
 62
     7
100
AcDbLine
 10
356.2017617972674
 20
151.4058471476219
 30
0.0
 11
378.6135969751392
 21
149.4451116208501
 31
0.0
  0
LINE
  5
C2
330
1F
100
AcDbEntity
  8
0
  6
Continuous
 62
     7
100
AcDbLine
 10
358.6203654605621
 20
127.6924872192016
 30
0.0
 11
383.6203654605622
 21
127.6924872192017
 31
0.0
  0
LINE
  5
C3
330
1F
100
AcDbEntity
  8
0
  6
Continuous
 62
     7
100
AcDbLine
 10
383.6203654605622
 20
127.6924872192017
 30
0.0
 11
391.1203654605623
 21
127.6924872192017
 31
0.0
  0
LINE
  5
C4
330
1F
100
AcDbEntity
  8
0
  6
Continuous
 62
     7
100
AcDbLine
 10
371.1203654605621
 20
155.6924872192015
 30
0.0
 11
371.1203654605621
 21
154.1924872192016
 31
0.0
  0
LINE
  5
C5
330
1F
100
AcDbEntity
  8
0
  6
Continuous
 62
     7
100
AcDbLine
 10
358.6203654605621
 20
155.6924872192017
 30
0.0
 11
371.1203654605621
 21
155.6924872192015
 31
0.0
  0
LINE
  5
C6
330
1F
100
AcDbEntity
  8
1
  6
DOT_CENTER
 62
     2
100
AcDbLine
 10
331.1203654605621
 20
121.6924872192016
 30
0.0
 11
331.1203654605621
 21
117.1597807277355
 31
0.0
  0
LINE
  5
C7
330
1F
100
AcDbEntity
  8
1
  6
DOT_CENTER
 62
     2
100
AcDbLine
 10
331.1203654605621
 20
163.6924872192016
 30
0.0
 11
331.1203654605621
 21
166.757655990811
 31
0.0
  0
LINE
  5
C8
330
1F
100
AcDbEntity
  8
A_RUNDUNGEN
  6
Continuous
 62
     7
100
AcDbLine
 10
377.8196760914356
 20
140.379810174616
 30
0.0
 11
354.9900034688816
 21
142.3771008837465
 31
0.0
  0
LINE
  5
C9
330
1F
100
AcDbEntity
  8
A_ACHSEN
  6
DASHED
 62
     2
100
AcDbLine
 10
385.8481100513041
 20
142.3852641533241
 30
0.0
 11
386.2318015934622
 21
146.7709813924017
 31
0.0
  0
LINE
  5
CA
330
1F
100
AcDbEntity
  8
A_RUNDUNGEN
  6
DASHED
 62
     2
100
AcDbLine
 10
378.6135969751392
 20
149.4451116208501
 30
0.0
 11
382.7430809228794
 21
149.0838370612565
 31
0.0
  0
LINE
  5
CB
330
1F
100
AcDbEntity
  8
A_RUNDUNGEN
  6
DASHED
 62
     2
100
AcDbLine
 10
381.9508042030597
 20
140.0183917726971
 30
0.0
 11
377.8196760914356
 21
140.379810174616
 31
0.0
  0
LINE
  5
CC
330
1F
100
AcDbEntity
  8
A_RUNDUNGEN
  6
Continuous
 62
     7
100
AcDbLine
 10
382.7430809228794
 20
149.0838370612565
 30
0.0
 11
384.4137192712622
 21
148.9376785724017
 31
0.0
  0
LINE
  5
CD
330
1F
100
AcDbEntity
  8
A_RUNDUNGEN
  6
Continuous
 62
     7
100
AcDbLine
 10
374.5460868907601
 20
190.0120638619618
 30
0.0
 11
387.1112133244073
 21
192.3164563466477
 31
0.0
  0
LINE
  5
CE
330
1F
100
AcDbEntity
  8
A_RUNDUNGEN
  6
Continuous
 62
     7
100
AcDbLine
 10
391.0245438891414
 20
159.2966465390239
 30
0.0
 11
391.2693447953822
 21
151.8872654459695
 31
0.0
  0
LINE
  5
CF
330
1F
100
AcDbEntity
  8
0
  6
DASHED
 62
     2
100
AcDbLine
 10
391.4957075020396
 20
182.8113147642767
 30
0.0
 11
391.0392100082624
 21
188.1445217330434
 31
0.0
  0
LINE
  5
D0
330
1F
100
AcDbEntity
  8
0
  6
DASHED
 62
     2
100
AcDbLine
 10
392.4819173515543
 20
166.6682918519955
 30
0.0
 11
392.6744257023535
 21
160.8416478371505
 31
0.0
  0
LINE
  5
D1
330
1F
100
AcDbEntity
  8
0
  6
DASHED
 62
     2
100
AcDbLine
 10
395.6926238805301
 20
179.6067536173982
 30
0.0
 11
392.577092664306
 21
181.2015781346207
 31
0.0
  0
LINE
  5
D2
330
1F
100
AcDbEntity
  8
0
  6
Continuous
 62
     7
100
AcDbLine
 10
391.0245438891414
 20
159.2966465390239
 30
0.0
 11
385.7858645216425
 21
159.4894428628502
 31
0.0
  0
LINE
  5
D3
330
1F
100
AcDbEntity
  8
A_RUNDUNGEN
  6
Continuous
 62
     7
100
AcDbLine
 10
391.0245438891414
 20
159.2966465390239
 30
0.0
 11
391.1200773764369
 21
159.2931306709923
 31
0.0
  0
LINE
  5
D4
330
1F
100
AcDbEntity
  8
A_RUNDUNGEN
  6
Continuous
 62
     7
100
AcDbLine
 10
382.5484878572922
 20
195.6594223010324
 30
0.0
 11
387.795054521419
 21
192.9737316221467
 31
0.0
  0
LINE
  5
D5
330
1F
100
AcDbEntity
  8
0
  6
Continuous
 62
     7
100
AcDbLine
 10
381.3276968584754
 20
196.1245640262127
 30
0.0
 11
374.8333332419217
 21
197.8171480203246
 31
0.0
  0
LINE
  5
D6
330
1F
100
AcDbEntity
  8
A_RUNDUNGEN
  6
Continuous
 62
     7
100
AcDbLine
 10
385.4548663994817
 20
150.4955315755532
 30
0.0
 11
391.1790015798247
 21
150.284869280279
 31
0.0
  0
LINE
  5
D7
330
1F
100
AcDbEntity
  8
0
  6
DASHED
 62
     2
100
AcDbLine
 10
386.0895227957168
 20
187.4342708726517
 30
0.0
 11
386.9696825746562
 21
181.8087581542946
 31
0.0
  0
LINE
  5
D8
330
1F
100
AcDbEntity
  8
0
  6
Continuous
 62
     7
100
AcDbLine
 10
398.6232231687132
 20
156.4337876373305
 30
0.0
 11
397.9765439820265
 21
176.0068056222256
 31
0.0
  0
LINE
  5
D9
330
1F
100
AcDbEntity
  8
0
  6
Continuous
 62
     7
100
AcDbLine
 10
386.9696825746562
 20
181.8087581542946
 30
0.0
 11
387.9487797814044
 21
175.5508900707213
 31
0.0
  0
LINE
  5
DA
330
1F
100
AcDbEntity
  8
A_RUNDUNGEN
  6
DASHED
 62
     2
100
AcDbLine
 10
391.1790015798247
 20
150.284869280279
 30
0.0
 11
392.4058298651835
 21
150.2397189729647
 31
0.0
  0
LINE
  5
DB
330
1F
100
AcDbEntity
  8
1
  6
DOT_CENTER
 62
     2
100
AcDbLine
 10
379.0764327954278
 20
191.2580279607081
 30
0.0
 11
368.5726418378594
 21
196.6348649044929
 31
0.0
  0
LINE
  5
DC
330
1F
100
AcDbEntity
  8
1
  6
DOT_CENTER
 62
     2
100
AcDbLine
 10
376.512955788536
 20
199.1983419113847
 30
0.0
 11
371.1361188447512
 21
188.6945509538163
 31
0.0
  0
LINE
  5
DD
330
1F
100
AcDbEntity
  8
1
  6
DOT_CENTER
 62
     2
100
AcDbLine
 10
391.3618444161924
 20
152.0534534660259
 30
0.0
 11
379.8788865049318
 21
157.9315209723775
 31
0.0
  0
LINE
  5
DE
330
1F
100
AcDbEntity
  8
1
  6
DOT_CENTER
 62
     2
100
AcDbLine
 10
388.5593992137379
 20
160.733966174832
 30
0.0
 11
382.6813317073863
 21
149.2510082635714
 31
0.0
  0
ARC
  5
DF
330
1F
100
AcDbEntity
  8
A_RUNDUNGEN
  6
Continuous
 62
     7
100
AcDbCircle
 10
371.121591763685
 20
184.3603847856
 30
0.0
 40
4.0
100
AcDbArc
 50
0.0
 51
90.0
  0
ARC
  5
E0
330
1F
100
AcDbEntity
  8
A_RUNDUNGEN
  6
Continuous
 62
     7
100
AcDbCircle
 10
372.941627584585
 20
190.5863816634
 30
0.0
 40
1.999999999981666
100
AcDbArc
 50
-147.4999999994498
 51
-57.49999999945026
  0
ARC
  5
E1
330
1F
100
AcDbEntity
  8
A_RUNDUNGEN
  6
Continuous
 62
     7
100
AcDbCircle
 10
367.625260968785
 20
208.423316546
 30
0.0
 40
2.000000000065994
100
AcDbArc
 50
32.49999999901113
 51
122.4999999990121
  0
ARC
  5
E2
330
1F
100
AcDbEntity
  8
A_RUNDUNGEN
  6
Continuous
 62
     7
100
AcDbCircle
 10
363.323964595185
 20
205.6830885435
 30
0.0
 40
1.99999999998169
100
AcDbArc
 50
122.5000000005497
 51
-147.4999999994498
  0
ARC
  5
E3
330
1F
100
AcDbEntity
  8
A_RUNDUNGEN
  6
DASHED
 62
     2
100
AcDbCircle
 10
377.242923958185
 20
193.326609666
 30
0.0
 40
1.999999999981696
100
AcDbArc
 50
-57.49999999944844
 51
32.49999999901025
  0
ARC
  5
E4
330
1F
100
AcDbEntity
  8
0
  6
Continuous
 62
     7
100
AcDbCircle
 10
382.0882543009526
 20
176.0930277390937
 30
0.0
 40
15.00000000000012
100
AcDbArc
 50
1.22394562330034
 51
92.5500000000003
  0
ARC
  5
E5
330
1F
100
AcDbEntity
  8
0
  6
Continuous
 62
     7
100
AcDbCircle
 10
385.232505704375
 20
168.4254922595432
 30
0.0
 40
6.000000000000191
100
AcDbArc
 50
2.54999999999969
 51
45.89175822719901
  0
ARC
  5
E6
330
1F
100
AcDbEntity
  8
0
  6
Continuous
 62
     7
100
AcDbCircle
 10
390.6667250394667
 20
149.6048065691589
 30
0.0
 40
6.000000000025948
100
AcDbArc
 50
-77.45000000006074
 51
0.55000000013884
  0
ARC
  5
E7
330
1F
100
AcDbEntity
  8
0
  6
Continuous
 62
     7
100
AcDbCircle
 10
380.2817731640025
 20
144.7316003815604
 30
0.0
 40
4.999999999999427
100
AcDbArc
 50
52.55741933580596
 51
-39.23404236670409
  0
ARC
  5
E8
330
1F
100
AcDbEntity
  8
0
  6
Continuous
 62
     7
100
AcDbCircle
 10
381.121591763685
 20
186.5603847856
 30
0.0
 40
4.500000000000058
100
AcDbArc
 50
92.54999999999956
 51
-87.44999999999823
  0
ARC
  5
E9
330
1F
100
AcDbEntity
  8
0
  6
Continuous
 62
     7
100
AcDbCircle
 10
388.9537702287067
 20
152.296919337808
 30
0.0
 40
3.000000000062503
100
AcDbArc
 50
-77.45000000022183
 51
-52.57200424194535
  0
ARC
  5
EA
330
1F
100
AcDbEntity
  8
A_RUNDUNGEN
  6
Continuous
 62
     7
100
AcDbCircle
 10
388.9537702287067
 20
152.296919337808
 30
0.0
 40
3.000000000039081
100
AcDbArc
 50
-52.57200424194535
 51
2.54999999999693
  0
ARC
  5
EB
330
1F
100
AcDbEntity
  8
0
  6
Continuous
 62
     7
100
AcDbCircle
 10
385.7065266313071
 20
180.2581334212333
 30
0.0
 40
2.000000000000041
100
AcDbArc
 50
2.54999999999728
 51
92.55000000000153
  0
ARC
  5
EC
330
1F
100
AcDbEntity
  8
0
  6
Continuous
 62
     7
100
AcDbCircle
 10
384.5375355788213
 20
150.2893414935475
 30
0.0
 40
1.999999999947411
100
AcDbArc
 50
-127.4425806631386
 51
-77.44999999801992
  0
ARC
  5
ED
330
1F
100
AcDbEntity
  8
0
  6
Continuous
 62
     7
100
AcDbCircle
 10
385.703754980002
 20
140.3041730035629
 30
0.0
 40
2.000000000085796
100
AcDbArc
 50
102.5500000014887
 51
140.7659576320039
  0
ARC
  5
EE
330
1F
100
AcDbEntity
  8
0
  6
Continuous
 62
     7
100
AcDbCircle
 10
391.971186706741
 20
158.7155236875157
 30
0.0
 40
0.299999999999874
100
AcDbArc
 50
92.54999999997965
 51
-177.449999999977
  0
ARC
  5
EF
330
1F
100
AcDbEntity
  8
0
  6
Continuous
 62
     7
100
AcDbCircle
 10
392.0443929615363
 20
159.319378673633
 30
0.0
 40
0.299999999999905
100
AcDbArc
 50
-87.45000000000975
 51
2.55000000002255
  0
ARC
  5
F0
330
1F
100
AcDbEntity
  8
0
  6
Continuous
 62
     7
100
AcDbCircle
 10
391.7596492515313
 20
165.7130412405514
 30
0.0
 40
0.2999999999998753
100
AcDbArc
 50
2.54999999998508
 51
92.5500000000011
  0
ARC
  5
F1
330
1F
100
AcDbEntity
  8
0
  6
Continuous
 62
     7
100
AcDbCircle
 10
391.6330535511101
 20
166.3079979857311
 30
0.0
 40
0.2999999999998804
100
AcDbArc
 50
-177.4499999999932
 51
-87.45000000000975
  0
ARC
  5
F2
330
1F
100
AcDbEntity
  8
0
  6
Continuous
 62
     7
100
AcDbCircle
 10
392.8886826837994
 20
176.323780305707
 30
0.0
 40
5.000000000000083
100
AcDbArc
 50
-177.4500000000006
 51
-134.1082417725076
  0
ARC
  5
F3
330
1F
100
AcDbEntity
  8
0
  6
Continuous
 62
     7
100
AcDbCircle
 10
392.8886826837994
 20
176.323780305707
 30
0.0
 40
4.197106869015676
100
AcDbArc
 50
-41.82498482761491
 51
1.22394562331358
  0
ARC
  5
F4
330
1F
100
AcDbEntity
  8
0
  6
Continuous
 62
     7
100
AcDbCircle
 10
350.1203654605621
 20
152.9831487654016
 30
0.0
 40
1.499999999982086
100
AcDbArc
 50
97.99999999855336
 51
-179.9999999999957
  0
ARC
  5
F5
330
1F
100
AcDbEntity
  8
0
  6
Continuous
 62
     7
100
AcDbCircle
 10
350.1203654605622
 20
130.4018256729014
 30
0.0
 40
1.500000000000114
100
AcDbArc
 50
179.9999999999957
 51
-97.99999999854951
  0
ARC
  5
F6
330
1F
100
AcDbEntity
  8
0
  6
Continuous
 62
     7
100
AcDbCircle
 10
379.1203654605622
 20
154.8924872192015
 30
0.0
 40
0.9999999999999147
100
AcDbArc
 50
-90.00000000000978
 51
0.00000000000489
  0
ARC
  5
F7
330
1F
100
AcDbEntity
  8
A_RUNDUNGEN
  6
Continuous
 62
     7
100
AcDbCircle
 10
383.7949278984622
 20
141.8646949561015
 30
0.0
 40
2.000000000022989
100
AcDbArc
 50
-28.19997758559224
 51
-4.99988334601245
  0
ARC
  5
F8
330
1F
100
AcDbEntity
  8
A_RUNDUNGEN
  6
Continuous
 62
     7
100
AcDbCircle
 10
384.2394118423621
 20
146.9452888213016
 30
0.0
 40
2.000000000014663
100
AcDbArc
 50
49.39743561222162
 51
85.00011665683213
  0
ARC
  5
F9
330
1F
100
AcDbEntity
  8
0
  6
Continuous
 62
     7
100
AcDbCircle
 10
369.120365460562
 20
129.3924872192016
 30
0.0
 40
2.000000000000284
100
AcDbArc
 50
-0.00000000000244
 51
89.99999999999186
  0
ARC
  5
FA
330
1F
100
AcDbEntity
  8
A_RUNDUNGEN
  6
Continuous
 62
     7
100
AcDbCircle
 10
383.7949278984622
 20
141.8646949561015
 30
0.0
 40
2.000000000014417
100
AcDbArc
 50
-94.99988334316836
 51
-28.19997758559224
  0
ARC
  5
FB
330
1F
100
AcDbEntity
  8
A_RUNDUNGEN
  6
DASHED
 62
     2
100
AcDbCircle
 10
384.2394118423621
 20
146.9452888213016
 30
0.0
 40
2.000000000014623
100
AcDbArc
 50
-4.99988334316131
 51
49.39743561222162
  0
ARC
  5
FC
330
1F
100
AcDbEntity
  8
0
  6
Continuous
 62
     7
100
AcDbCircle
 10
373.8245373166436
 20
193.9464464326005
 30
0.0
 40
4.00000000000843
100
AcDbArc
 50
75.39232518922671
 51
-79.60767481068238
  0
ARC
  5
FD
330
1F
100
AcDbEntity
  8
0
  6
Continuous
 62
     7
100
AcDbCircle
 10
379.8145029706254
 20
190.3185116446484
 30
0.0
 40
5.999999999999873
100
AcDbArc
 50
62.89232519002195
 51
75.39232518979478
  0
ARC
  5
FE
330
1F
100
AcDbEntity
  8
A_RUNDUNGEN
  6
Continuous
 62
     7
100
AcDbCircle
 10
385.0610696347521
 20
187.6328209657626
 30
0.0
 40
6.000000000052484
100
AcDbArc
 50
4.89232518971721
 51
62.89232519002087
  0
ARC
  5
FF
330
1F
100
AcDbEntity
  8
A_RUNDUNGEN
  6
Continuous
 62
     7
100
AcDbCircle
 10
381.6436101835475
 20
186.7386696611154
 30
0.0
 40
4.500000000000331
100
AcDbArc
 50
74.43370418244677
 51
100.3923251900145
  0
ARC
  5
100
330
1F
100
AcDbEntity
  8
A_RUNDUNGEN
  6
Continuous
 62
     7
100
AcDbCircle
 10
387.02101962762
 20
192.8082541679331
 30
0.0
 40
0.4999999999612157
100
AcDbArc
 50
-79.60767480719916
 51
62.89232519003224
  0
ARC
  5
101
330
1F
100
AcDbEntity
  8
0
  6
DASHED
 62
     2
100
AcDbCircle
 10
384.4862801665221
 20
166.4041214437967
 30
0.0
 40
7.999999999952341
100
AcDbArc
 50
1.89232518963144
 51
49.73388241122108
  0
ARC
  5
102
330
1F
100
AcDbEntity
  8
0
  6
Continuous
 62
     7
100
AcDbCircle
 10
392.6264952799272
 20
156.2356598311033
 30
0.0
 40
5.999999999978659
100
AcDbArc
 50
-47.93789746773756
 51
1.89232519037319
  0
ARC
  5
103
330
1F
100
AcDbEntity
  8
0
  6
Continuous
 62
     7
100
AcDbCircle
 10
385.6203654605621
 20
154.9924872192017
 30
0.0
 40
4.500000000017849
100
AcDbArc
 50
87.89232518945029
 51
-92.10767481054899
  0
ARC
  5
104
330
1F
100
AcDbEntity
  8
A_RUNDUNGEN
  6
Continuous
 62
     7
100
AcDbCircle
 10
389.7701628231743
 20
151.8377334943905
 30
0.0
 40
1.5000000000001
100
AcDbArc
 50
-92.10767480997855
 51
1.89232519120567
  0
ARC
  5
105
330
1F
100
AcDbEntity
  8
A_RUNDUNGEN
  6
DASHED
 62
     2
100
AcDbCircle
 10
391.1752437301456
 20
160.7921158855716
 30
0.0
 40
1.500000000006825
100
AcDbArc
 50
-40.12786910869151
 51
1.89232519120242
  0
ARC
  5
106
330
1F
100
AcDbEntity
  8
0
  6
DASHED
 62
     2
100
AcDbCircle
 10
393.4884209598617
 20
182.9818816867486
 30
0.0
 40
2.000000000006719
100
AcDbArc
 50
-175.107674808963
 51
-117.1076748099816
  0
ARC
  5
107
330
1F
100
AcDbEntity
  8
0
  6
DASHED
 62
     2
100
AcDbCircle
 10
392.8886826837994
 20
176.323780305707
 30
0.0
 40
5.000000000042657
100
AcDbArc
 50
-171.1076748098007
 51
-130.2661175883996
  0
ARC
  5
108
330
1F
100
AcDbEntity
  8
0
  6
Continuous
 62
     7
100
AcDbCircle
 10
393.7788344598632
 20
175.8681161579294
 30
0.0
 40
4.200000000000006
100
AcDbArc
 50
55.69569587484873
 51
62.89232519001992
  0
ARC
  5
109
330
1F
100
AcDbEntity
  8
0
  6
Continuous
 62
     7
100
AcDbCircle
 10
393.7788344598632
 20
175.8681161579294
 30
0.0
 40
4.199999999996076
100
AcDbArc
 50
1.89232518951074
 51
55.69569587484873
  0
ARC
  5
10A
330
1F
100
AcDbEntity
  8
A_RUNDUNGEN
  6
DASHED
 62
     2
100
AcDbCircle
 10
381.6436101835475
 20
186.7386696611154
 30
0.0
 40
4.500000000059653
100
AcDbArc
 50
8.8923251907903
 51
74.43370418244677
  0
ARC
  5
10B
330
1F
100
AcDbEntity
  8
A_RUNDUNGEN
  6
Continuous
 62
     7
100
AcDbCircle
 10
391.1752437301456
 20
160.7921158855716
 30
0.0
 40
1.500000000036295
100
AcDbArc
 50
-92.10767481109008
 51
-40.12786910869151
  0
ARC
  5
10C
330
1F
100
AcDbEntity
  8
0
  6
DASHED
 62
     2
100
AcDbCircle
 10
392.6264952799272
 20
156.2356598311033
 30
0.0
 40
5.999999999963319
100
AcDbArc
 50
-92.10767481028273
 51
-47.93789746773756
  0
CIRCLE
  5
10D
330
1F
100
AcDbEntity
  8
A_NOTIZEN_SYMB
  6
Continuous
 62
     2
100
AcDbCircle
 10
330.713575871285
 20
173.8959471324
 30
0.0
 40
0.8092754575999948
  0
CIRCLE
  5
10E
330
1F
100
AcDbEntity
  8
A_NOTIZEN_SYMB
  6
Continuous
 62
     2
100
AcDbCircle
 10
333.213514966885
 20
172.9414249322
 30
0.0
 40
0.8092754575999948
  0
CIRCLE
  5
10F
330
1F
100
AcDbEntity
  8
A_NOTIZEN_SYMB
  6
Continuous
 62
     2
100
AcDbCircle
 10
333.213514966885
 20
169.5778705126
 30
0.0
 40
0.8092754575999948
  0
CIRCLE
  5
110
330
1F
100
AcDbEntity
  8
A_NOTIZEN_SYMB
  6
Continuous
 62
     2
100
AcDbCircle
 10
342.349656025585
 20
173.0777852465
 30
0.0
 40
0.8092754575999948
  0
CIRCLE
  5
111
330
1F
100
AcDbEntity
  8
A_NOTIZEN_SYMB
  6
Continuous
 62
     2
100
AcDbCircle
 10
342.349656025585
 20
169.7142308269
 30
0.0
 40
0.8092754575999948
  0
CIRCLE
  5
112
330
1F
100
AcDbEntity
  8
A_NOTIZEN_SYMB
  6
Continuous
 62
     2
100
AcDbCircle
 10
351.485797084185
 20
173.2141455608
 30
0.0
 40
0.8092754575999948
  0
CIRCLE
  5
113
330
1F
100
AcDbEntity
  8
A_NOTIZEN_SYMB
  6
Continuous
 62
     2
100
AcDbCircle
 10
351.485797084185
 20
169.8505911412
 30
0.0
 40
0.8092754575999948
  0
CIRCLE
  5
114
330
1F
100
AcDbEntity
  8
A_NOTIZEN_SYMB
  6
Continuous
 62
     2
100
AcDbCircle
 10
327.666927083385
 20
172.9891972343
 30
0.0
 40
0.676495721599963
  0
CIRCLE
  5
115
330
1F
100
AcDbEntity
  8
A_NOTIZEN_SYMB
  6
Continuous
 62
     2
100
AcDbCircle
 10
327.178211716885
 20
170.6154368828
 30
0.0
 40
0.676495721599963
  0
CIRCLE
  5
116
330
1F
100
AcDbEntity
  8
A_NOTIZEN_SYMB
  6
Continuous
 62
     2
100
AcDbCircle
 10
328.178914610185
 20
167.8460498061
 30
0.0
 40
0.676495721599963
  0
CIRCLE
  5
117
330
1F
100
AcDbEntity
  8
A_NOTIZEN_SYMB
  6
Continuous
 62
     2
100
AcDbCircle
 10
330.808668725085
 20
170.5747176624
 30
0.0
 40
0.6764957216000198
  0
CIRCLE
  5
118
330
1F
100
AcDbEntity
  8
A_NOTIZEN_SYMB
  6
Continuous
 62
     2
100
AcDbCircle
 10
336.803068141985
 20
173.1255575486
 30
0.0
 40
0.676495721599963
  0
CIRCLE
  5
119
330
1F
100
AcDbEntity
  8
A_NOTIZEN_SYMB
  6
Continuous
 62
     2
100
AcDbCircle
 10
336.314352775585
 20
170.7517971971
 30
0.0
 40
0.6764957216000198
  0
CIRCLE
  5
11A
330
1F
100
AcDbEntity
  8
A_NOTIZEN_SYMB
  6
Continuous
 62
     2
100
AcDbCircle
 10
337.315055668785
 20
167.9824101204
 30
0.0
 40
0.676495721599963
  0
CIRCLE
  5
11B
330
1F
100
AcDbEntity
  8
A_NOTIZEN_SYMB
  6
Continuous
 62
     2
100
AcDbCircle
 10
339.944809783685
 20
170.7110779767
 30
0.0
 40
0.6764957216000198
  0
CIRCLE
  5
11C
330
1F
100
AcDbEntity
  8
A_NOTIZEN_SYMB
  6
Continuous
 62
     2
100
AcDbCircle
 10
345.939209200685
 20
173.2619178629
 30
0.0
 40
0.676495721599963
  0
CIRCLE
  5
11D
330
1F
100
AcDbEntity
  8
A_NOTIZEN_SYMB
  6
Continuous
 62
     2
100
AcDbCircle
 10
345.450493834185
 20
170.8881575114
 30
0.0
 40
0.676495721599963
  0
CIRCLE
  5
11E
330
1F
100
AcDbEntity
  8
A_NOTIZEN_SYMB
  6
Continuous
 62
     2
100
AcDbCircle
 10
346.451196727485
 20
168.1187704347
 30
0.0
 40
0.676495721599963
  0
CIRCLE
  5
11F
330
1F
100
AcDbEntity
  8
A_NOTIZEN_SYMB
  6
Continuous
 62
     2
100
AcDbCircle
 10
349.080950842285
 20
170.847438291
 30
0.0
 40
0.6764957216000198
  0
CIRCLE
  5
120
330
1F
100
AcDbEntity
  8
A_NOTIZEN_SYMB
  6
Continuous
 62
     2
100
AcDbCircle
 10
355.075350259285
 20
173.3982781772
 30
0.0
 40
0.676495721599963
  0
CIRCLE
  5
121
330
1F
100
AcDbEntity
  8
A_NOTIZEN_SYMB
  6
Continuous
 62
     2
100
AcDbCircle
 10
354.586634892785
 20
171.0245178257
 30
0.0
 40
0.676495721599963
  0
CIRCLE
  5
122
330
1F
100
AcDbEntity
  8
A_NOTIZEN_SYMB
  6
Continuous
 62
     2
100
AcDbCircle
 10
330.656777450685
 20
167.7759832381
 30
0.0
 40
0.6039708433999635
  0
CIRCLE
  5
123
330
1F
100
AcDbEntity
  8
A_NOTIZEN_SYMB
  6
Continuous
 62
     2
100
AcDbCircle
 10
340.031549059385
 20
167.7759832381
 30
0.0
 40
0.6039708434000204
  0
CIRCLE
  5
124
330
1F
100
AcDbEntity
  8
A_NOTIZEN_SYMB
  6
Continuous
 62
     2
100
AcDbCircle
 10
349.406320668085
 20
167.7759832381
 30
0.0
 40
0.6039708433999635
  0
CIRCLE
  5
125
330
1F
100
AcDbEntity
  8
A_NOTIZEN_SYMB
  6
Continuous
 62
     2
100
AcDbCircle
 10
330.713575871285
 20
177.2140481139
 30
0.0
 40
0.8092754575999948
  0
CIRCLE
  5
126
330
1F
100
AcDbEntity
  8
A_NOTIZEN_SYMB
  6
Continuous
 62
     2
100
AcDbCircle
 10
333.213514966885
 20
179.1685459523
 30
0.0
 40
0.8092754575999948
  0
CIRCLE
  5
127
330
1F
100
AcDbEntity
  8
A_NOTIZEN_SYMB
  6
Continuous
 62
     2
100
AcDbCircle
 10
333.468054220285
 20
176.0686214737
 30
0.0
 40
0.8092754575999948
  0
CIRCLE
  5
128
330
1F
100
AcDbEntity
  8
A_NOTIZEN_SYMB
  6
Continuous
 62
     2
100
AcDbCircle
 10
339.849716929885
 20
177.3504084282
 30
0.0
 40
0.8092754575999948
  0
CIRCLE
  5
129
330
1F
100
AcDbEntity
  8
A_NOTIZEN_SYMB
  6
Continuous
 62
     2
100
AcDbCircle
 10
339.849716929885
 20
174.0323074467
 30
0.0
 40
0.8092754575999948
  0
CIRCLE
  5
12A
330
1F
100
AcDbEntity
  8
A_NOTIZEN_SYMB
  6
Continuous
 62
     2
100
AcDbCircle
 10
342.349656025585
 20
179.3049062666
 30
0.0
 40
0.8092754575999948
  0
CIRCLE
  5
12B
330
1F
100
AcDbEntity
  8
A_NOTIZEN_SYMB
  6
Continuous
 62
     2
100
AcDbCircle
 10
342.604195278885
 20
176.204981788
 30
0.0
 40
0.8092754575999948
  0
CIRCLE
  5
12C
330
1F
100
AcDbEntity
  8
A_NOTIZEN_SYMB
  6
Continuous
 62
     2
100
AcDbCircle
 10
348.985857988585
 20
177.4867687425
 30
0.0
 40
0.8092754575999948
  0
CIRCLE
  5
12D
330
1F
100
AcDbEntity
  8
A_NOTIZEN_SYMB
  6
Continuous
 62
     2
100
AcDbCircle
 10
348.985857988585
 20
174.168667761
 30
0.0
 40
0.8092754575999948
  0
CIRCLE
  5
12E
330
1F
100
AcDbEntity
  8
A_NOTIZEN_SYMB
  6
Continuous
 62
     2
100
AcDbCircle
 10
351.485797084185
 20
179.4412665809
 30
0.0
 40
0.8092754575999948
  0
CIRCLE
  5
12F
330
1F
100
AcDbEntity
  8
A_NOTIZEN_SYMB
  6
Continuous
 62
     2
100
AcDbCircle
 10
351.740336337585
 20
176.3413421023
 30
0.0
 40
0.8092754575999948
  0
CIRCLE
  5
130
330
1F
100
AcDbEntity
  8
A_NOTIZEN_SYMB
  6
Continuous
 62
     2
100
AcDbCircle
 10
330.570975397685
 20
179.736019775
 30
0.0
 40
0.6914661695000177
  0
CIRCLE
  5
131
330
1F
100
AcDbEntity
  8
A_NOTIZEN_SYMB
  6
Continuous
 62
     2
100
AcDbCircle
 10
339.707116456285
 20
179.8723800893
 30
0.0
 40
0.6914661695000177
  0
CIRCLE
  5
132
330
1F
100
AcDbEntity
  8
A_NOTIZEN_SYMB
  6
Continuous
 62
     2
100
AcDbCircle
 10
348.843257514885
 20
180.0087404036
 30
0.0
 40
0.6914661695000177
  0
CIRCLE
  5
133
330
1F
100
AcDbEntity
  8
A_NOTIZEN_SYMB
  6
Continuous
 62
     2
100
AcDbCircle
 10
327.666927083385
 20
178.2254333037
 30
0.0
 40
0.676495721599963
  0
CIRCLE
  5
134
330
1F
100
AcDbEntity
  8
A_NOTIZEN_SYMB
  6
Continuous
 62
     2
100
AcDbCircle
 10
328.178914610185
 20
175.5724070285
 30
0.0
 40
0.676495721599963
  0
CIRCLE
  5
135
330
1F
100
AcDbEntity
  8
A_NOTIZEN_SYMB
  6
Continuous
 62
     2
100
AcDbCircle
 10
336.803068141985
 20
178.361793618
 30
0.0
 40
0.676495721599963
  0
CIRCLE
  5
136
330
1F
100
AcDbEntity
  8
A_NOTIZEN_SYMB
  6
Continuous
 62
     2
100
AcDbCircle
 10
337.315055668785
 20
175.7087673428
 30
0.0
 40
0.676495721599963
  0
CIRCLE
  5
137
330
1F
100
AcDbEntity
  8
A_NOTIZEN_SYMB
  6
Continuous
 62
     2
100
AcDbCircle
 10
345.939209200685
 20
178.4981539323
 30
0.0
 40
0.676495721599963
  0
CIRCLE
  5
138
330
1F
100
AcDbEntity
  8
A_NOTIZEN_SYMB
  6
Continuous
 62
     2
100
AcDbCircle
 10
346.451196727485
 20
175.8451276571
 30
0.0
 40
0.676495721599963
  0
CIRCLE
  5
139
330
1F
100
AcDbEntity
  8
A_NOTIZEN_SYMB
  6
Continuous
 62
     2
100
AcDbCircle
 10
355.075350259285
 20
178.6345142466
 30
0.0
 40
0.676495721599963
  0
CIRCLE
  5
13A
330
1F
100
AcDbEntity
  8
A_NOTIZEN_SYMB
  6
Continuous
 62
     2
100
AcDbCircle
 10
360.621938142785
 20
173.3505058751
 30
0.0
 40
0.8092754575999948
  0
CIRCLE
  5
13B
330
1F
100
AcDbEntity
  8
A_NOTIZEN_SYMB
  6
Continuous
 62
     2
100
AcDbCircle
 10
360.621938142785
 20
169.9869514555
 30
0.0
 40
0.8092754575999948
  0
CIRCLE
  5
13C
330
1F
100
AcDbEntity
  8
A_NOTIZEN_SYMB
  6
Continuous
 62
     2
100
AcDbCircle
 10
374.167062697385
 20
173.0323318084
 30
0.0
 40
0.8092754575999948
  0
CIRCLE
  5
13D
330
1F
100
AcDbEntity
  8
A_NOTIZEN_SYMB
  6
Continuous
 62
     2
100
AcDbCircle
 10
374.167062697385
 20
169.6687773888
 30
0.0
 40
0.8092754575999948
  0
CIRCLE
  5
13E
330
1F
100
AcDbEntity
  8
A_NOTIZEN_SYMB
  6
Continuous
 62
     2
100
AcDbCircle
 10
383.303203755985
 20
173.1686921227
 30
0.0
 40
0.8092754575999948
  0
CIRCLE
  5
13F
330
1F
100
AcDbEntity
  8
A_NOTIZEN_SYMB
  6
Continuous
 62
     2
100
AcDbCircle
 10
383.303203755985
 20
169.8051377031
 30
0.0
 40
0.8092754575999948
  0
CIRCLE
  5
140
330
1F
100
AcDbEntity
  8
A_NOTIZEN_SYMB
  6
Continuous
 62
     2
100
AcDbCircle
 10
355.587337786085
 20
168.255130749
 30
0.0
 40
0.676495721599963
  0
CIRCLE
  5
141
330
1F
100
AcDbEntity
  8
A_NOTIZEN_SYMB
  6
Continuous
 62
     2
100
AcDbCircle
 10
358.217091900985
 20
170.9837986054
 30
0.0
 40
0.6764957216000198
  0
CIRCLE
  5
142
330
1F
100
AcDbEntity
  8
A_NOTIZEN_SYMB
  6
Continuous
 62
     2
100
AcDbCircle
 10
368.620474813885
 20
173.0801041105
 30
0.0
 40
0.6764957216000198
  0
CIRCLE
  5
143
330
1F
100
AcDbEntity
  8
A_NOTIZEN_SYMB
  6
Continuous
 62
     2
100
AcDbCircle
 10
368.131759447385
 20
170.706343759
 30
0.0
 40
0.6764957216000198
  0
CIRCLE
  5
144
330
1F
100
AcDbEntity
  8
A_NOTIZEN_SYMB
  6
Continuous
 62
     2
100
AcDbCircle
 10
369.132462340685
 20
167.9369566823
 30
0.0
 40
0.6764957216000198
  0
CIRCLE
  5
145
330
1F
100
AcDbEntity
  8
A_NOTIZEN_SYMB
  6
Continuous
 62
     2
100
AcDbCircle
 10
371.762216455485
 20
170.6656245386
 30
0.0
 40
0.6764957216000198
  0
CIRCLE
  5
146
330
1F
100
AcDbEntity
  8
A_NOTIZEN_SYMB
  6
Continuous
 62
     2
100
AcDbCircle
 10
377.756615872485
 20
173.2164644248
 30
0.0
 40
0.6764957216000198
  0
CIRCLE
  5
147
330
1F
100
AcDbEntity
  8
A_NOTIZEN_SYMB
  6
Continuous
 62
     2
100
AcDbCircle
 10
377.267900505985
 20
170.8427040733
 30
0.0
 40
0.6764957216000198
  0
CIRCLE
  5
148
330
1F
100
AcDbEntity
  8
A_NOTIZEN_SYMB
  6
Continuous
 62
     2
100
AcDbCircle
 10
378.268603399285
 20
168.0733169966
 30
0.0
 40
0.6764957216000198
  0
CIRCLE
  5
149
330
1F
100
AcDbEntity
  8
A_NOTIZEN_SYMB
  6
Continuous
 62
     2
100
AcDbCircle
 10
380.898357514185
 20
170.8019848529
 30
0.0
 40
0.676495721599963
  0
CIRCLE
  5
14A
330
1F
100
AcDbEntity
  8
A_NOTIZEN_SYMB
  6
Continuous
 62
     2
100
AcDbCircle
 10
363.275150492985
 20
173.1528296115
 30
0.0
 40
0.6764957216000198
  0
CIRCLE
  5
14B
330
1F
100
AcDbEntity
  8
A_NOTIZEN_SYMB
  6
Continuous
 62
     2
100
AcDbCircle
 10
362.786435126485
 20
170.77906926
 30
0.0
 40
0.6764957216000198
  0
CIRCLE
  5
14C
330
1F
100
AcDbEntity
  8
A_NOTIZEN_SYMB
  6
Continuous
 62
     2
100
AcDbCircle
 10
363.787138019785
 20
168.0096821833
 30
0.0
 40
0.6764957216000198
  0
CIRCLE
  5
14D
330
1F
100
AcDbEntity
  8
A_NOTIZEN_SYMB
  6
Continuous
 62
     2
100
AcDbCircle
 10
366.416892134685
 20
170.7383500396
 30
0.0
 40
0.6764957216000198
  0
CIRCLE
  5
14E
330
1F
100
AcDbEntity
  8
A_NOTIZEN_SYMB
  6
Continuous
 62
     2
100
AcDbCircle
 10
358.894725871985
 20
167.7759832381
 30
0.0
 40
0.6039708434000204
  0
CIRCLE
  5
14F
330
1F
100
AcDbEntity
  8
A_NOTIZEN_SYMB
  6
Continuous
 62
     2
100
AcDbCircle
 10
372.303490112285
 20
167.7759832381
 30
0.0
 40
0.6039708434000204
  0
CIRCLE
  5
150
330
1F
100
AcDbEntity
  8
A_NOTIZEN_SYMB
  6
Continuous
 62
     2
100
AcDbCircle
 10
380.939643351685
 20
167.7759832381
 30
0.0
 40
0.6039708434000204
  0
CIRCLE
  5
151
330
1F
100
AcDbEntity
  8
A_NOTIZEN_SYMB
  6
Continuous
 62
     2
100
AcDbCircle
 10
358.121999047185
 20
177.6231290568
 30
0.0
 40
0.8092754575999948
  0
CIRCLE
  5
152
330
1F
100
AcDbEntity
  8
A_NOTIZEN_SYMB
  6
Continuous
 62
     2
100
AcDbCircle
 10
358.121999047185
 20
174.3050280753
 30
0.0
 40
0.8092754575999948
  0
CIRCLE
  5
153
330
1F
100
AcDbEntity
  8
A_NOTIZEN_SYMB
  6
Continuous
 62
     2
100
AcDbCircle
 10
360.621938142785
 20
179.5776268952
 30
0.0
 40
0.8092754575999948
  0
CIRCLE
  5
154
330
1F
100
AcDbEntity
  8
A_NOTIZEN_SYMB
  6
Continuous
 62
     2
100
AcDbCircle
 10
360.876477396185
 20
176.4777024166
 30
0.0
 40
0.8092754575999948
  0
CIRCLE
  5
155
330
1F
100
AcDbEntity
  8
A_NOTIZEN_SYMB
  6
Continuous
 62
     2
100
AcDbCircle
 10
371.667123601785
 20
177.3049549901
 30
0.0
 40
0.8092754575999948
  0
CIRCLE
  5
156
330
1F
100
AcDbEntity
  8
A_NOTIZEN_SYMB
  6
Continuous
 62
     2
100
AcDbCircle
 10
371.667123601785
 20
173.9868540086
 30
0.0
 40
0.8092754575999948
  0
CIRCLE
  5
157
330
1F
100
AcDbEntity
  8
A_NOTIZEN_SYMB
  6
Continuous
 62
     2
100
AcDbCircle
 10
374.167062697385
 20
179.2594528285
 30
0.0
 40
0.8092754575999948
  0
CIRCLE
  5
158
330
1F
100
AcDbEntity
  8
A_NOTIZEN_SYMB
  6
Continuous
 62
     2
100
AcDbCircle
 10
374.421601950785
 20
176.1595283499
 30
0.0
 40
0.8092754576000516
  0
CIRCLE
  5
159
330
1F
100
AcDbEntity
  8
A_NOTIZEN_SYMB
  6
Continuous
 62
     2
100
AcDbCircle
 10
380.803264660385
 20
177.4413153044
 30
0.0
 40
0.8092754575999948
  0
CIRCLE
  5
15A
330
1F
100
AcDbEntity
  8
A_NOTIZEN_SYMB
  6
Continuous
 62
     2
100
AcDbCircle
 10
380.803264660385
 20
174.1232143229
 30
0.0
 40
0.8092754575999948
  0
CIRCLE
  5
15B
330
1F
100
AcDbEntity
  8
A_NOTIZEN_SYMB
  6
Continuous
 62
     2
100
AcDbCircle
 10
383.303203755985
 20
179.3958131428
 30
0.0
 40
0.8092754575999948
  0
CIRCLE
  5
15C
330
1F
100
AcDbEntity
  8
A_NOTIZEN_SYMB
  6
Continuous
 62
     2
100
AcDbCircle
 10
383.557743009385
 20
176.2958886642
 30
0.0
 40
0.8092754575999948
  0
CIRCLE
  5
15D
330
1F
100
AcDbEntity
  8
A_NOTIZEN_SYMB
  6
Continuous
 62
     2
100
AcDbCircle
 10
366.321799280885
 20
177.377680491
 30
0.0
 40
0.8092754575999948
  0
CIRCLE
  5
15E
330
1F
100
AcDbEntity
  8
A_NOTIZEN_SYMB
  6
Continuous
 62
     2
100
AcDbCircle
 10
366.321799280885
 20
174.0595795095
 30
0.0
 40
0.8092754575999948
  0
CIRCLE
  5
15F
330
1F
100
AcDbEntity
  8
A_NOTIZEN_SYMB
  6
Continuous
 62
     2
100
AcDbCircle
 10
357.979398573485
 20
180.1451007179
 30
0.0
 40
0.6914661694999609
  0
CIRCLE
  5
160
330
1F
100
AcDbEntity
  8
A_NOTIZEN_SYMB
  6
Continuous
 62
     2
100
AcDbCircle
 10
371.524523128085
 20
179.8269266512
 30
0.0
 40
0.6914661695000177
  0
CIRCLE
  5
161
330
1F
100
AcDbEntity
  8
A_NOTIZEN_SYMB
  6
Continuous
 62
     2
100
AcDbCircle
 10
380.660664186685
 20
179.9632869655
 30
0.0
 40
0.6914661695000177
  0
CIRCLE
  5
162
330
1F
100
AcDbEntity
  8
A_NOTIZEN_SYMB
  6
Continuous
 62
     2
100
AcDbCircle
 10
366.179198807185
 20
179.8996521522
 30
0.0
 40
0.6914661695000177
  0
CIRCLE
  5
163
330
1F
100
AcDbEntity
  8
A_NOTIZEN_SYMB
  6
Continuous
 62
     2
100
AcDbCircle
 10
355.587337786085
 20
175.9814879715
 30
0.0
 40
0.676495721599963
  0
CIRCLE
  5
164
330
1F
100
AcDbEntity
  8
A_NOTIZEN_SYMB
  6
Continuous
 62
     2
100
AcDbCircle
 10
368.620474813885
 20
178.3163401799
 30
0.0
 40
0.6764957216000198
  0
CIRCLE
  5
165
330
1F
100
AcDbEntity
  8
A_NOTIZEN_SYMB
  6
Continuous
 62
     2
100
AcDbCircle
 10
369.132462340685
 20
175.6633139047
 30
0.0
 40
0.6764957216000198
  0
CIRCLE
  5
166
330
1F
100
AcDbEntity
  8
A_NOTIZEN_SYMB
  6
Continuous
 62
     2
100
AcDbCircle
 10
377.756615872485
 20
178.4527004942
 30
0.0
 40
0.6764957216000198
  0
CIRCLE
  5
167
330
1F
100
AcDbEntity
  8
A_NOTIZEN_SYMB
  6
Continuous
 62
     2
100
AcDbCircle
 10
378.268603399285
 20
175.799674219
 30
0.0
 40
0.6764957216000198
  0
CIRCLE
  5
168
330
1F
100
AcDbEntity
  8
A_NOTIZEN_SYMB
  6
Continuous
 62
     2
100
AcDbCircle
 10
363.275150492985
 20
178.3890656809
 30
0.0
 40
0.6764957216000198
  0
CIRCLE
  5
169
330
1F
100
AcDbEntity
  8
A_NOTIZEN_SYMB
  6
Continuous
 62
     2
100
AcDbCircle
 10
363.787138019785
 20
175.7360394057
 30
0.0
 40
0.6764957216000198
  0
CIRCLE
  5
16A
330
1F
100
AcDbEntity
  8
1
  6
Continuous
 62
     7
100
AcDbCircle
 10
381.121591763685
 20
186.5603847856
 30
0.0
 40
2.000000000000042
  0
CIRCLE
  5
16B
330
1F
100
AcDbEntity
  8
1
  6
Continuous
 62
     7
100
AcDbCircle
 10
392.8886826837994
 20
176.323780305707
 30
0.0
 40
2.000000000000014
  0
CIRCLE
  5
16C
330
1F
100
AcDbEntity
  8
1
  6
Continuous
 62
     7
100
AcDbCircle
 10
380.2817731640025
 20
144.7316003815604
 30
0.0
 40
2.00000000000004
  0
CIRCLE
  5
16D
330
1F
100
AcDbEntity
  8
1
  6
Continuous
 62
     7
100
AcDbCircle
 10
385.6203654605621
 20
154.9924872192017
 30
0.0
 40
2.0
  0
CIRCLE
  5
16E
330
1F
100
AcDbEntity
  8
1
  6
Continuous
 62
     7
100
AcDbCircle
 10
373.8245373166436
 20
193.9464464326005
 30
0.0
 40
1.999999999999746
  0
SPLINE
  5
16F
330
1F
100
AcDbEntity
  8
A_RUNDUNGEN
  6
Continuous
 62
     7
100
AcDbSpline
210
0.0
220
0.0
230
1.0
 70
     8
 71
     3
 72
    23
 73
    19
 74
    17
 42
0.0000000001
 43
0.0000000001
 44
0.00000001
 40
0.0
 40
0.0
 40
0.0
 40
0.0
 40
0.0163842828549834
 40
0.0334166731464507
 40
0.0520961913315004
 40
0.0704381914454098
 40
0.0953792055370831
 40
0.1204708803718318
 40
0.1513145931850761
 40
0.1821006329997161
 40
0.2177992748184674
 40
0.2535198457068922
 40
0.2930661319497188
 40
0.3325961363269422
 40
0.3747539859753631
 40
0.416954641250263
 40
0.4605847757445509
 40
0.5040563762807403
 40
0.5040563762807403
 40
0.5040563762807403
 40
0.5040563762807403
 10
354.514064446462
 20
142.4187391763015
 30
0.0
 10
354.5181338836999
 20
142.4226176677174
 30
0.0
 10
354.5264337315035
 20
142.4305280706988
 30
0.0
 10
354.5289203847082
 20
142.4484431728491
 30
0.0
 10
354.5327256689433
 20
142.4658495151757
 30
0.0
 10
354.5364411586906
 20
142.486231747887
 30
0.0
 10
354.5395836551034
 20
142.508791685243
 30
0.0
 10
354.5424275476546
 20
142.5356080700559
 30
0.0
 10
354.5451493283067
 20
142.5643851633404
 30
0.0
 10
354.5477745723657
 20
142.5967232730895
 30
0.0
 10
354.5500473078546
 20
142.6307167265325
 30
0.0
 10
354.5520701590355
 20
142.6676505245034
 30
0.0
 10
354.5538089052784
 20
142.705877175635
 30
0.0
 10
354.5552620401621
 20
142.7462630031169
 30
0.0
 10
354.5563592469857
 20
142.7875452419291
 30
0.0
 10
354.5571738203383
 20
142.8302001740547
 30
0.0
 10
354.5578688851697
 20
142.8732967220092
 30
0.0
 10
354.5578287895053
 20
142.9023311640101
 30
0.0
 10
354.5578087781622
 20
142.9168219622016
 30
0.0
 11
354.514064446462
 21
142.4187391763015
 31
0.0
 11
354.5246609454656
 21
142.4312355331121
 31
0.0
 11
354.5290258891005
 21
142.4476991167471
 31
0.0
 11
354.5326510857279
 21
142.4660234816484
 31
0.0
 11
354.5359366123563
 21
142.4840688212948
 31
0.0
 11
354.5394424983864
 21
142.5087621999025
 31
0.0
 11
354.5421827609193
 21
142.5337037938224
 31
0.0
 11
354.5450830292263
 21
142.5644108461696
 31
0.0
 11
354.5475745487261
 21
142.5950959008062
 31
0.0
 11
354.5499753124051
 21
142.6307137244548
 31
0.0
 11
354.5519481490325
 21
142.6663797741412
 31
0.0
 11
354.553746653876
 21
142.7058851425856
 31
0.0
 11
354.5551706722061
 21
142.745389489408
 31
0.0
 11
354.5563063661526
 21
142.7875320390014
 31
0.0
 11
354.5571442035115
 21
142.8297243763886
 31
0.0
 11
354.5577421966271
 21
142.8733504126539
 31
0.0
 11
354.5578087781622
 21
142.9168219622016
 31
0.0
  0
SPLINE
  5
170
330
1F
100
AcDbEntity
  8
A_RUNDUNGEN
  6
Continuous
 62
     7
100
AcDbSpline
210
0.0
220
0.0
230
1.0
 70
     8
 71
     3
 72
    21
 73
    17
 74
    15
 42
0.0000000001
 43
0.0000000001
 44
0.00000001
 40
0.0
 40
0.0
 40
0.0
 40
0.0
 40
0.0859597820286579
 40
0.1719195912750238
 40
0.2117370709884397
 40
0.2515592021546053
 40
0.2876579564401143
 40
0.3237422112723636
 40
0.3550058187452204
 40
0.3863118217052788
 40
0.4119261164059788
 40
0.4374282561406436
 40
0.4564068193747575
 40
0.475638762099354
 40
0.4936855309089904
 40
0.5112409267394076
 40
0.5112409267394076
 40
0.5112409267394076
 40
0.5112409267394076
 10
354.5578087781621
 20
151.0477611980016
 30
0.0
 10
354.5576862650105
 20
151.076414684861
 30
0.0
 10
354.5574412386688
 20
151.1337216676527
 30
0.0
 10
354.5557697318158
 20
151.2042859627581
 30
0.0
 10
354.5538005835886
 20
151.2594509643051
 30
0.0
 10
354.5520690136997
 20
151.2979921732914
 30
0.0
 10
354.5500438955036
 20
151.3352728915312
 30
0.0
 10
354.5477680865354
 20
151.3696808158956
 30
0.0
 10
354.545151308314
 20
151.4024626484831
 30
0.0
 10
354.5424263379327
 20
151.4317296578899
 30
0.0
 10
354.5395553386802
 20
151.4590598373412
 30
0.0
 10
354.536414442668
 20
151.4822024872991
 30
0.0
 10
354.5327511422361
 20
151.5031728433825
 30
0.0
 10
354.5289343984487
 20
151.5213726761638
 30
0.0
 10
354.5261642365433
 20
151.5400195032443
 30
0.0
 10
354.5180604275129
 20
151.5490467455978
 30
0.0
 10
354.5140644464622
 20
151.5534980708016
 30
0.0
 11
354.5578087781621
 21
151.0477611980016
 31
0.0
 11
354.5571632010222
 21
151.1337185557819
 31
0.0
 11
354.5551706721857
 21
151.2196552687427
 31
0.0
 11
354.5537395218897
 21
151.259447020395
 31
0.0
 11
354.5519481490023
 21
151.2992288392799
 31
0.0
 11
354.5499728789893
 21
151.3352735111378
 31
0.0
 11
354.5475745486872
 21
151.3712779755632
 31
0.0
 11
354.5450840720441
 21
151.402442228776
 31
0.0
 11
354.5421827608731
 21
151.4336135010442
 31
0.0
 11
354.53942338254
 21
151.4590787307552
 31
0.0
 11
354.5359366123042
 21
151.4843413823256
 31
0.0
 11
354.5326681742483
 21
151.5030363863402
 31
0.0
 11
354.5290258890439
 21
151.5219202784033
 31
0.0
 11
354.5245192947821
 21
151.5393953026559
 31
0.0
 11
354.5140644464622
 21
151.5534980708016
 31
0.0
  0
ENDSEC
  0
SECTION
  2
OBJECTS
  0
DICTIONARY
  5
C
330
0
100
AcDbDictionary
281
     1
  3
ACAD_GROUP
350
D
  3
ACAD_LAYOUT
350
1A
  3
ACAD_MLINESTYLE
350
17
  3
ACAD_PLOTSETTINGS
350
19
  3
ACAD_PLOTSTYLENAME
350
E
  0
DICTIONARY
  5
D
102
{ACAD_REACTORS
330
C
102
}
330
C
100
AcDbDictionary
281
     1
  0
DICTIONARY
  5
1A
102
{ACAD_REACTORS
330
C
102
}
330
C
100
AcDbDictionary
281
     1
  3
Layout1
350
1E
  3
Layout2
350
26
  3
Model
350
22
  0
DICTIONARY
  5
17
102
{ACAD_REACTORS
330
C
102
}
330
C
100
AcDbDictionary
281
     1
  3
Standard
350
18
  0
DICTIONARY
  5
19
102
{ACAD_REACTORS
330
C
102
}
330
C
100
AcDbDictionary
281
     1
  0
ACDBDICTIONARYWDFLT
  5
E
102
{ACAD_REACTORS
330
C
102
}
330
C
100
AcDbDictionary
281
     1
  3
Normal
350
F
100
AcDbDictionaryWithDefault
340
F
  0
LAYOUT
  5
1E
102
{ACAD_REACTORS
330
1A
102
}
330
1A
100
AcDbPlotSettings
  1

  2

  4

  6

 40
0.0
 41
0.0
 42
0.0
 43
0.0
 44
0.0
 45
0.0
 46
0.0
 47
0.0
 48
0.0
 49
0.0
140
0.0
141
0.0
142
1.0
143
1.0
 70
   688
 72
     0
 73
     0
 74
     5
  7

 75
    16
 76
     0
 77
     2
 78
   300
147
1.0
148
0.0
149
0.0
100
AcDbLayout
  1
Layout1
 70
     1
 71
     1
 10
0.0
 20
0.0
 11
0.0
 21
0.0
 12
0.0
 22
0.0
 32
0.0
 14
0.0
 24
0.0
 34
0.0
 15
0.0
 25
0.0
 35
0.0
146
0.0
 13
0.0
 23
0.0
 33
0.0
 16
1.0
 26
0.0
 36
0.0
 17
0.0
 27
1.0
 37
0.0
 76
     0
330
1B
  0
LAYOUT
  5
26
102
{ACAD_REACTORS
330
1A
102
}
330
1A
100
AcDbPlotSettings
  1

  2

  4

  6

 40
0.0
 41
0.0
 42
0.0
 43
0.0
 44
0.0
 45
0.0
 46
0.0
 47
0.0
 48
0.0
 49
0.0
140
0.0
141
0.0
142
1.0
143
1.0
 70
   688
 72
     0
 73
     0
 74
     5
  7

 75
    16
 76
     0
 77
     2
 78
   300
147
1.0
148
0.0
149
0.0
100
AcDbLayout
  1
Layout2
 70
     1
 71
     2
 10
0.0
 20
0.0
 11
0.0
 21
0.0
 12
0.0
 22
0.0
 32
0.0
 14
0.0
 24
0.0
 34
0.0
 15
0.0
 25
0.0
 35
0.0
146
0.0
 13
0.0
 23
0.0
 33
0.0
 16
1.0
 26
0.0
 36
0.0
 17
0.0
 27
1.0
 37
0.0
 76
     0
330
23
  0
LAYOUT
  5
22
102
{ACAD_REACTORS
330
1A
102
}
330
1A
100
AcDbPlotSettings
  1

  2

  4

  6

 40
0.0
 41
0.0
 42
0.0
 43
0.0
 44
0.0
 45
0.0
 46
0.0
 47
0.0
 48
0.0
 49
0.0
140
0.0
141
0.0
142
1.0
143
1.0
 70
  1712
 72
     0
 73
     0
 74
     0
  7

 75
     0
 76
     0
 77
     2
 78
   300
147
1.0
148
0.0
149
0.0
100
AcDbLayout
  1
Model
 70
     1
 71
     0
 10
0.0
 20
0.0
 11
0.0
 21
0.0
 12
0.0
 22
0.0
 32
0.0
 14
326.121591763685
 24
117.1597807277355
 34
0.0
 15
401.121591763685
 25
250.8603847856
 35
0.0
146
0.0
 13
0.0
 23
0.0
 33
0.0
 16
1.0
 26
0.0
 36
0.0
 17
0.0
 27
1.0
 37
0.0
 76
     0
330
1F
  0
MLINESTYLE
  5
18
102
{ACAD_REACTORS
330
17
102
}
330
17
100
AcDbMlineStyle
  2
Standard
 70
     0
  3

 62
   256
 51
90.0
 52
90.0
 71
     2
 49
0.5
 62
   256
  6
BYLAYER
 49
-0.5
 62
   256
  6
BYLAYER
  0
ACDBPLACEHOLDER
  5
F
102
{ACAD_REACTORS
330
E
102
}
330
E
  0
ENDSEC
  0
EOF
