  0
SECTION
  2
HEADER
  9
$ACADVER
  1
AC1018
  9
$ACADMAINTVER
 70
     0
  9
$DWGCODEPAGE
  3
ANSI_1252
  9
$INSBASE
 10
0.0
 20
0.0
 30
0.0
  9
$EXTMIN
 10
645.845574750127
 20
-160.0876474458759
 30
0.0
  9
$EXTMAX
 10
740.8300661850104
 20
-41.26283953055159
 30
0.0
  9
$LIMMIN
 10
0.0
 20
0.0
  9
$LIMMAX
 10
12.0
 20
9.0
  9
$ORTHOMODE
 70
     0
  9
$REGENMODE
 70
     1
  9
$FILLMODE
 70
     1
  9
$QTEXTMODE
 70
     0
  9
$MIRRTEXT
 70
     1
  9
$LTSCALE
 40
1.0
  9
$ATTMODE
 70
     1
  9
$TEXTSIZE
 40
0.2
  9
$TRACEWID
 40
0.05
  9
$TEXTSTYLE
  7
Standard
  9
$CLAYER
  8
0
  9
$CELTYPE
  6
ByLayer
  9
$CECOLOR
 62
   256
  9
$CELTSCALE
 40
1.0
  9
$DISPSILH
 70
     0
  9
$DIMSCALE
 40
1.0
  9
$DIMASZ
 40
0.18
  9
$DIMEXO
 40
0.0625
  9
$DIMDLI
 40
0.38
  9
$DIMRND
 40
0.0
  9
$DIMDLE
 40
0.0
  9
$DIMEXE
 40
0.18
  9
$DIMTP
 40
0.0
  9
$DIMTM
 40
0.0
  9
$DIMTXT
 40
0.18
  9
$DIMCEN
 40
0.09
  9
$DIMTSZ
 40
0.0
  9
$DIMTOL
 70
     0
  9
$DIMLIM
 70
     0
  9
$DIMTIH
 70
     1
  9
$DIMTOH
 70
     1
  9
$DIMSE1
 70
     0
  9
$DIMSE2
 70
     0
  9
$DIMTAD
 70
     0
  9
$DIMZIN
 70
     0
  9
$DIMBLK
  1

  9
$DIMASO
 70
     1
  9
$DIMSHO
 70
     1
  9
$DIMPOST
  1

  9
$DIMAPOST
  1

  9
$DIMALT
 70
     0
  9
$DIMALTD
 70
     2
  9
$DIMALTF
 40
25.4
  9
$DIMLFAC
 40
1.0
  9
$DIMTOFL
 70
     0
  9
$DIMTVP
 40
0.0
  9
$DIMTIX
 70
     0
  9
$DIMSOXD
 70
     0
  9
$DIMSAH
 70
     0
  9
$DIMBLK1
  1

  9
$DIMBLK2
  1

  9
$DIMSTYLE
  2
Standard
  9
$DIMCLRD
 70
     0
  9
$DIMCLRE
 70
     0
  9
$DIMCLRT
 70
     0
  9
$DIMTFAC
 40
1.0
  9
$DIMGAP
 40
0.09
  9
$DIMJUST
 70
     0
  9
$DIMSD1
 70
     0
  9
$DIMSD2
 70
     0
  9
$DIMTOLJ
 70
     1
  9
$DIMTZIN
 70
     0
  9
$DIMALTZ
 70
     0
  9
$DIMALTTZ
 70
     0
  9
$DIMUPT
 70
     0
  9
$DIMDEC
 70
     4
  9
$DIMTDEC
 70
     4
  9
$DIMALTU
 70
     2
  9
$DIMALTTD
 70
     2
  9
$DIMTXSTY
  7
Standard
  9
$DIMAUNIT
 70
     0
  9
$DIMADEC
 70
     0
  9
$DIMALTRND
 40
0.0
  9
$DIMAZIN
 70
     0
  9
$DIMDSEP
 70
    46
  9
$DIMATFIT
 70
     3
  9
$DIMFRAC
 70
     0
  9
$DIMLDRBLK
  1

  9
$DIMLUNIT
 70
     2
  9
$DIMLWD
 70
    -2
  9
$DIMLWE
 70
    -2
  9
$DIMTMOVE
 70
     0
  9
$LUNITS
 70
     2
  9
$LUPREC
 70
     4
  9
$SKETCHINC
 40
0.1
  9
$FILLETRAD
 40
0.5
  9
$AUNITS
 70
     0
  9
$AUPREC
 70
     0
  9
$MENU
  1
.
  9
$ELEVATION
 40
0.0
  9
$PELEVATION
 40
0.0
  9
$THICKNESS
 40
0.0
  9
$LIMCHECK
 70
     0
  9
$CHAMFERA
 40
0.5
  9
$CHAMFERB
 40
0.5
  9
$CHAMFERC
 40
1.0
  9
$CHAMFERD
 40
0.0
  9
$SKPOLY
 70
     0
  9
$TDCREATE
 40
2456385.427572326
  9
$TDUCREATE
 40
2456385.344238993
  9
$TDUPDATE
 40
2456385.427572338
  9
$TDUUPDATE
 40
2456385.344239004
  9
$TDINDWG
 40
0.0000000116
  9
$TDUSRTIMER
 40
0.0000000116
  9
$USRTIMER
 70
     1
  9
$ANGBASE
 50
0.0
  9
$ANGDIR
 70
     0
  9
$PDMODE
 70
     0
  9
$PDSIZE
 40
0.0
  9
$PLINEWID
 40
0.0
  9
$SPLFRAME
 70
     0
  9
$SPLINETYPE
 70
     6
  9
$SPLINESEGS
 70
     8
  9
$HANDSEED
  5
11B
  9
$SURFTAB1
 70
     6
  9
$SURFTAB2
 70
     6
  9
$SURFTYPE
 70
     6
  9
$SURFU
 70
     6
  9
$SURFV
 70
     6
  9
$UCSBASE
  2

  9
$UCSNAME
  2

  9
$UCSORG
 10
0.0
 20
0.0
 30
0.0
  9
$UCSXDIR
 10
1.0
 20
0.0
 30
0.0
  9
$UCSYDIR
 10
0.0
 20
1.0
 30
0.0
  9
$UCSORTHOREF
  2

  9
$UCSORTHOVIEW
 70
     0
  9
$UCSORGTOP
 10
0.0
 20
0.0
 30
0.0
  9
$UCSORGBOTTOM
 10
0.0
 20
0.0
 30
0.0
  9
$UCSORGLEFT
 10
0.0
 20
0.0
 30
0.0
  9
$UCSORGRIGHT
 10
0.0
 20
0.0
 30
0.0
  9
$UCSORGFRONT
 10
0.0
 20
0.0
 30
0.0
  9
$UCSORGBACK
 10
0.0
 20
0.0
 30
0.0
  9
$PUCSBASE
  2

  9
$PUCSNAME
  2

  9
$PUCSORG
 10
0.0
 20
0.0
 30
0.0
  9
$PUCSXDIR
 10
1.0
 20
0.0
 30
0.0
  9
$PUCSYDIR
 10
0.0
 20
1.0
 30
0.0
  9
$PUCSORTHOREF
  2

  9
$PUCSORTHOVIEW
 70
     0
  9
$PUCSORGTOP
 10
0.0
 20
0.0
 30
0.0
  9
$PUCSORGBOTTOM
 10
0.0
 20
0.0
 30
0.0
  9
$PUCSORGLEFT
 10
0.0
 20
0.0
 30
0.0
  9
$PUCSORGRIGHT
 10
0.0
 20
0.0
 30
0.0
  9
$PUCSORGFRONT
 10
0.0
 20
0.0
 30
0.0
  9
$PUCSORGBACK
 10
0.0
 20
0.0
 30
0.0
  9
$USERI1
 70
     0
  9
$USERI2
 70
     0
  9
$USERI3
 70
     0
  9
$USERI4
 70
     0
  9
$USERI5
 70
     0
  9
$USERR1
 40
16.5
  9
$USERR2
 40
0.0
  9
$USERR3
 40
0.0
  9
$USERR4
 40
0.0
  9
$USERR5
 40
0.0
  9
$WORLDVIEW
 70
     1
  9
$SHADEDGE
 70
     3
  9
$SHADEDIF
 70
    70
  9
$TILEMODE
 70
     1
  9
$MAXACTVP
 70
    64
  9
$PINSBASE
 10
0.0
 20
0.0
 30
0.0
  9
$PLIMCHECK
 70
     0
  9
$PEXTMIN
 10
1.00000000000000E+20
 20
1.00000000000000E+20
 30
1.00000000000000E+20
  9
$PEXTMAX
 10
-1.00000000000000E+20
 20
-1.00000000000000E+20
 30
-1.00000000000000E+20
  9
$PLIMMIN
 10
0.0
 20
0.0
  9
$PLIMMAX
 10
12.0
 20
9.0
  9
$UNITMODE
 70
     0
  9
$VISRETAIN
 70
     1
  9
$PLINEGEN
 70
     0
  9
$PSLTSCALE
 70
     1
  9
$TREEDEPTH
 70
  3020
  9
$CMLSTYLE
  2
Standard
  9
$CMLJUST
 70
     0
  9
$CMLSCALE
 40
1.0
  9
$PROXYGRAPHICS
 70
     1
  9
$MEASUREMENT
 70
     1
  9
$CELWEIGHT
370
    -1
  9
$ENDCAPS
280
     0
  9
$JOINSTYLE
280
     0
  9
$LWDISPLAY
290
     0
  9
$INSUNITS
 70
     1
  9
$HYPERLINKBASE
  1

  9
$STYLESHEET
  1

  9
$XEDIT
290
     1
  9
$CEPSNTYPE
380
     0
  9
$PSTYLEMODE
290
     1
  9
$FINGERPRINTGUID
  2
{F5C14F48-96DB-44F1-B668-90D5DAD0A772}
  9
$VERSIONGUID
  2
{FAEB1C32-E019-11D5-929B-00C0DF256EC4}
  9
$EXTNAMES
290
     1
  9
$PSVPSCALE
 40
0.0
  9
$OLESTARTUP
290
     0
  9
$SORTENTS
280
   127
  9
$INDEXCTL
280
     0
  9
$HIDETEXT
280
     1
  9
$XCLIPFRAME
290
     0
  9
$HALOGAP
280
     0
  9
$OBSCOLOR
 70
   257
  9
$OBSLTYPE
280
     0
  9
$INTERSECTIONDISPLAY
280
     0
  9
$INTERSECTIONCOLOR
 70
   257
  9
$DIMASSOC
280
     2
  9
$PROJECTNAME
  1

  0
ENDSEC
  0
SECTION
  2
CLASSES
  0
CLASS
  1
ACDBDICTIONARYWDFLT
  2
AcDbDictionaryWithDefault
  3
ObjectDBX Classes
 90
        0
 91
        4
280
     0
281
     0
  0
CLASS
  1
VISUALSTYLE
  2
AcDbVisualStyle
  3
ObjectDBX Classes
 90
     4095
 91
        4
280
     0
281
     0
  0
CLASS
  1

  2
exOdDbCircle
  3

 90
        0
 91
        4
280
     0
281
     1
  0
ENDSEC
  0
SECTION
  2
TABLES
  0
TABLE
  2
VPORT
  5
8
330
0
100
AcDbSymbolTable
 70
     1
  0
VPORT
  5
29
330
8
100
AcDbSymbolTableRecord
100
AcDbViewportTableRecord
  2
*Active
 70
     0
 10
0.0
 20
0.0
 11
1.0
 21
1.0
 12
693.3378204675687
 22
-100.6752434882137
 13
0.0
 23
0.0
 14
0.5
 24
0.5
 15
0.5
 25
0.5
 16
0.0
 26
0.0
 36
1.0
 17
0.0
 27
0.0
 37
0.0
 40
130.7072887068567
 41
1.60267857142857
 42
50.0
 43
0.0
 44
0.0
 50
0.0
 51
0.0
 71
     0
 72
   100
 73
     1
 74
     3
 75
     0
 76
     0
 77
     0
 78
     0
281
     0
 65
     1
110
0.0
120
0.0
130
0.0
111
1.0
121
0.0
131
0.0
112
0.0
122
1.0
132
0.0
 79
     0
146
0.0
  0
ENDTAB
  0
TABLE
  2
LTYPE
  5
5
330
0
100
AcDbSymbolTable
 70
     8
  0
LTYPE
  5
14
330
5
100
AcDbSymbolTableRecord
100
AcDbLinetypeTableRecord
  2
ByBlock
 70
     0
  3

 72
    65
 73
     0
 40
0.0
  0
LTYPE
  5
15
330
5
100
AcDbSymbolTableRecord
100
AcDbLinetypeTableRecord
  2
ByLayer
 70
     0
  3

 72
    65
 73
     0
 40
0.0
  0
LTYPE
  5
16
330
5
100
AcDbSymbolTableRecord
100
AcDbLinetypeTableRecord
  2
Continuous
 70
     0
  3
Solid line
 72
    65
 73
     0
 40
0.0
  0
LTYPE
  5
3B
330
5
100
AcDbSymbolTableRecord
100
AcDbLinetypeTableRecord
  2
DASHED
 70
     0
  3
Dashed
 72
    65
 73
     2
 40
15.0
 49
7.0
 74
     0
 49
-8.0
 74
     0
  0
LTYPE
  5
3C
330
5
100
AcDbSymbolTableRecord
100
AcDbLinetypeTableRecord
  2
DOTTED
 70
     0
  3
Dotted
 72
    65
 73
     2
 40
1.0
 49
0.0
 74
     0
 49
-1.0
 74
     0
  0
LTYPE
  5
3D
330
5
100
AcDbSymbolTableRecord
100
AcDbLinetypeTableRecord
  2
DOT_CENTER
 70
     0
  3
Dot_Center
 72
    65
 73
     4
 40
14.0
 49
12.0
 74
     0
 49
-1.0
 74
     0
 49
0.0
 74
     0
 49
-1.0
 74
     0
  0
LTYPE
  5
3E
330
5
100
AcDbSymbolTableRecord
100
AcDbLinetypeTableRecord
  2
LONG_DASHED
 70
     0
  3
Long_Dashed
 72
    65
 73
     2
 40
15.0
 49
10.0
 74
     0
 49
-5.0
 74
     0
  0
LTYPE
  5
3F
330
5
100
AcDbSymbolTableRecord
100
AcDbLinetypeTableRecord
  2
DASH_CENTER
 70
     0
  3
Dash_Center
 72
    65
 73
     4
 40
14.0
 49
11.0
 74
     0
 49
-1.0
 74
     0
 49
1.0
 74
     0
 49
-1.0
 74
     0
  0
LTYPE
  5
40
330
5
100
AcDbSymbolTableRecord
100
AcDbLinetypeTableRecord
  2
PHANTOM
 70
     0
  3
Phantom
 72
    65
 73
     6
 40
13.0
 49
10.0
 74
     0
 49
-1.0
 74
     0
 49
0.0
 74
     0
 49
-1.0
 74
     0
 49
0.0
 74
     0
 49
-1.0
 74
     0
  0
LTYPE
  5
41
330
5
100
AcDbSymbolTableRecord
100
AcDbLinetypeTableRecord
  2
CENTER_DASH_DASH
 70
     0
  3
Center_Dash_Dash
 72
    65
 73
     6
 40
14.0
 49
9.0
 74
     0
 49
-1.0
 74
     0
 49
1.0
 74
     0
 49
-1.0
 74
     0
 49
1.0
 74
     0
 49
-1.0
 74
     0
  0
ENDTAB
  0
TABLE
  2
LAYER
  5
2
330
0
100
AcDbSymbolTable
 70
     2
  0
LAYER
  5
10
330
2
100
AcDbSymbolTableRecord
100
AcDbLayerTableRecord
  2
0
 70
     0
 62
     7
  6
Continuous
370
    -3
390
F
  0
LAYER
  5
42
330
2
100
AcDbSymbolTableRecord
100
AcDbLayerTableRecord
  2
1
 70
     0
 62
     7
  6
Continuous
370
    -3
390
F
  0
ENDTAB
  0
TABLE
  2
STYLE
  5
3
330
0
100
AcDbSymbolTable
 70
     1
  0
STYLE
  5
11
330
3
100
AcDbSymbolTableRecord
100
AcDbTextStyleTableRecord
  2
Standard
 70
     0
 40
0.0
 41
1.0
 50
0.0
 71
     0
 42
0.2
  3
txt
  4

  0
ENDTAB
  0
TABLE
  2
VIEW
  5
6
330
0
100
AcDbSymbolTable
 70
     0
  0
ENDTAB
  0
TABLE
  2
UCS
  5
7
330
0
100
AcDbSymbolTable
 70
     0
  0
ENDTAB
  0
TABLE
  2
APPID
  5
9
330
0
100
AcDbSymbolTable
 70
     1
  0
APPID
  5
12
330
9
100
AcDbSymbolTableRecord
100
AcDbRegAppTableRecord
  2
ACAD
 70
     0
  0
ENDTAB
  0
TABLE
  2
DIMSTYLE
  5
A
330
0
100
AcDbSymbolTable
 70
     1
100
AcDbDimStyleTable
  0
DIMSTYLE
105
27
330
A
100
AcDbSymbolTableRecord
100
AcDbDimStyleTableRecord
  2
Standard
 70
     0
340
11
  0
ENDTAB
  0
TABLE
  2
BLOCK_RECORD
  5
1
330
0
100
AcDbSymbolTable
 70
     1
  0
BLOCK_RECORD
  5
1F
330
1
100
AcDbSymbolTableRecord
100
AcDbBlockTableRecord
  2
*Model_Space
340
22
  0
BLOCK_RECORD
  5
1B
330
1
100
AcDbSymbolTableRecord
100
AcDbBlockTableRecord
  2
*Paper_Space
340
1E
  0
BLOCK_RECORD
  5
23
330
1
100
AcDbSymbolTableRecord
100
AcDbBlockTableRecord
  2
*Paper_Space0
340
26
  0
ENDTAB
  0
ENDSEC
  0
SECTION
  2
BLOCKS
  0
BLOCK
  5
20
330
1F
100
AcDbEntity
  8
0
100
AcDbBlockBegin
  2
*Model_Space
 70
     0
 10
0.0
 20
0.0
 30
0.0
  3
*Model_Space
  1

  0
ENDBLK
  5
21
330
1F
100
AcDbEntity
  8
0
100
AcDbBlockEnd
  0
BLOCK
  5
1C
330
1B
100
AcDbEntity
 67
     1
  8
0
100
AcDbBlockBegin
  2
*Paper_Space
 70
     0
 10
0.0
 20
0.0
 30
0.0
  3
*Paper_Space
  1

  0
ENDBLK
  5
1D
330
1B
100
AcDbEntity
 67
     1
  8
0
100
AcDbBlockEnd
  0
BLOCK
  5
24
330
23
100
AcDbEntity
  8
0
100
AcDbBlockBegin
  2
*Paper_Space0
 70
     0
 10
0.0
 20
0.0
 30
0.0
  3
*Paper_Space0
  1

  0
ENDBLK
  5
25
330
23
100
AcDbEntity
  8
0
100
AcDbBlockEnd
  0
ENDSEC
  0
SECTION
  2
ENTITIES
  0
LINE
  5
43
330
1F
100
AcDbEntity
  8
1
  6
Continuous
 62
     7
100
AcDbLine
 10
696.313843286352
 20
-99.32835629487433
 30
0.0
 11
696.313843286352
 21
-93.48415944520127
 31
0.0
  0
LINE
  5
44
330
1F
100
AcDbEntity
  8
1
  6
Continuous
 62
     7
100
AcDbLine
 10
683.3138432863522
 20
-98.32911182034465
 30
0.0
 11
670.405109925477
 21
-98.3313554119988
 31
0.0
  0
LINE
  5
45
330
1F
100
AcDbEntity
  8
1
  6
Continuous
 62
     7
100
AcDbLine
 10
683.313843286352
 20
-99.32835629487434
 30
0.0
 11
670.313843286352
 21
-99.32835629487434
 31
0.0
  0
LINE
  5
46
330
1F
100
AcDbEntity
  8
1
  6
Continuous
 62
     7
100
AcDbLine
 10
683.313843286352
 20
-99.32835629487434
 30
0.0
 11
683.3138432863522
 21
-98.32911182034465
 31
0.0
  0
LINE
  5
47
330
1F
100
AcDbEntity
  8
1
  6
Continuous
 62
     7
100
AcDbLine
 10
670.313843286352
 20
-99.32835629487434
 30
0.0
 11
661.313843286352
 21
-99.32835629487434
 31
0.0
  0
LINE
  5
48
330
1F
100
AcDbEntity
  8
1
  6
Continuous
 62
     7
100
AcDbLine
 10
661.313843286352
 20
-67.32835629487457
 30
0.0
 11
661.313843286352
 21
-69.89715391392048
 31
0.0
  0
LINE
  5
49
330
1F
100
AcDbEntity
  8
1
  6
Continuous
 62
     7
100
AcDbLine
 10
670.3138432863539
 20
-67.32835629487434
 30
0.0
 11
688.313843286352
 21
-67.32835629487427
 31
0.0
  0
LINE
  5
4A
330
1F
100
AcDbEntity
  8
1
  6
Continuous
 62
     7
100
AcDbLine
 10
694.313843286352
 20
-67.32835629487428
 30
0.0
 11
694.313843286352
 21
-68.32835629487428
 31
0.0
  0
LINE
  5
4B
330
1F
100
AcDbEntity
  8
1
  6
Continuous
 62
     7
100
AcDbLine
 10
694.313843286352
 20
-67.32835629487428
 30
0.0
 11
696.313843286352
 21
-67.32835629487428
 31
0.0
  0
LINE
  5
4C
330
1F
100
AcDbEntity
  8
1
  6
Continuous
 62
     7
100
AcDbLine
 10
670.3837700982945
 20
-68.32835629487445
 30
0.0
 11
688.313843286352
 21
-68.32835629487427
 31
0.0
  0
LINE
  5
4D
330
1F
100
AcDbEntity
  8
1
  6
Continuous
 62
     7
100
AcDbLine
 10
662.744256735872
 20
-69.40201987954937
 30
0.0
 11
670.3837700982945
 21
-68.32835629487445
 31
0.0
  0
LINE
  5
4E
330
1F
100
AcDbEntity
  8
1
  6
Continuous
 62
     7
100
AcDbLine
 10
696.313843286352
 20
-99.32835629487433
 30
0.0
 11
683.313843286352
 21
-99.32835629487434
 31
0.0
  0
LINE
  5
4F
330
1F
100
AcDbEntity
  8
1
  6
Continuous
 62
     7
100
AcDbLine
 10
661.313843286352
 20
-67.32835629487457
 30
0.0
 11
670.3138432863539
 21
-67.32835629487434
 31
0.0
  0
LINE
  5
50
330
1F
100
AcDbEntity
  8
1
  6
Continuous
 62
     7
100
AcDbLine
 10
696.313843286352
 20
-58.32835629487428
 30
0.0
 11
696.313843286352
 21
-67.32835629487428
 31
0.0
  0
LINE
  5
51
330
1F
100
AcDbEntity
  8
1
  6
DOT_CENTER
 62
     2
100
AcDbLine
 10
709.313843286352
 20
-41.26283953055159
 30
0.0
 11
716.3283165034829
 21
-41.26283953055159
 31
0.0
  0
LINE
  5
52
330
1F
100
AcDbEntity
  8
1
  6
DOT_CENTER
 62
     2
100
AcDbLine
 10
650.313843286352
 20
-41.26283953055159
 30
0.0
 11
645.845574750127
 21
-41.26283953055159
 31
0.0
  0
LINE
  5
53
330
1F
100
AcDbEntity
  8
1
  6
DOT_CENTER
 62
     2
100
AcDbLine
 10
709.313843286352
 20
-41.26283953055159
 30
0.0
 11
650.313843286352
 21
-41.26283953055159
 31
0.0
  0
LINE
  5
54
330
1F
100
AcDbEntity
  8
1
  6
Continuous
 62
     7
100
AcDbLine
 10
650.313843286352
 20
-41.26283953055159
 30
0.0
 11
650.313843286352
 21
-103.3283562948743
 31
0.0
  0
LINE
  5
55
330
1F
100
AcDbEntity
  8
1
  6
Continuous
 62
     7
100
AcDbLine
 10
709.313843286352
 20
-58.32835629487428
 30
0.0
 11
709.313843286352
 21
-41.26283953055159
 31
0.0
  0
LINE
  5
56
330
1F
100
AcDbEntity
  8
1
  6
Continuous
 62
     7
100
AcDbLine
 10
696.313843286352
 20
-60.32835629487428
 30
0.0
 11
698.0458940939209
 21
-63.32835629487428
 31
0.0
  0
LINE
  5
57
330
1F
100
AcDbEntity
  8
1
  6
Continuous
 62
     7
100
AcDbLine
 10
698.0458940939209
 20
-63.32835629487428
 30
0.0
 11
707.5817924787834
 21
-63.32835629487428
 31
0.0
  0
LINE
  5
58
330
1F
100
AcDbEntity
  8
1
  6
Continuous
 62
     7
100
AcDbLine
 10
707.5817924787834
 20
-63.32835629487428
 30
0.0
 11
709.313843286352
 21
-60.32835629487428
 31
0.0
  0
LINE
  5
59
330
1F
100
AcDbEntity
  8
1
  6
Continuous
 62
     7
100
AcDbLine
 10
709.313843286352
 20
-60.32835629487428
 30
0.0
 11
709.313843286352
 21
-58.32835629487428
 31
0.0
  0
LINE
  5
5A
330
1F
100
AcDbEntity
  8
1
  6
Continuous
 62
     7
100
AcDbLine
 10
697.313843286352
 20
-59.32835629487428
 30
0.0
 11
708.313843286352
 21
-59.32835629487428
 31
0.0
  0
LINE
  5
5B
330
1F
100
AcDbEntity
  8
1
  6
Continuous
 62
     7
100
AcDbLine
 10
708.313843286352
 20
-59.32835629487428
 30
0.0
 11
708.313843286352
 21
-60.06040710244318
 31
0.0
  0
LINE
  5
5C
330
1F
100
AcDbEntity
  8
1
  6
Continuous
 62
     7
100
AcDbLine
 10
708.313843286352
 20
-60.06040710244318
 30
0.0
 11
707.0044422095934
 21
-62.32835629487428
 31
0.0
  0
LINE
  5
5D
330
1F
100
AcDbEntity
  8
1
  6
Continuous
 62
     7
100
AcDbLine
 10
707.0044422095934
 20
-62.32835629487428
 30
0.0
 11
698.6232443631104
 21
-62.32835629487431
 31
0.0
  0
LINE
  5
5E
330
1F
100
AcDbEntity
  8
1
  6
Continuous
 62
     7
100
AcDbLine
 10
698.6232443631104
 20
-62.32835629487431
 30
0.0
 11
697.313843286352
 21
-60.06040710244318
 31
0.0
  0
LINE
  5
5F
330
1F
100
AcDbEntity
  8
1
  6
Continuous
 62
     7
100
AcDbLine
 10
697.313843286352
 20
-60.06040710244318
 30
0.0
 11
697.313843286352
 21
-59.32835629487428
 31
0.0
  0
LINE
  5
60
330
1F
100
AcDbEntity
  8
1
  6
Continuous
 62
     7
100
AcDbLine
 10
696.313843286352
 20
-58.32835629487428
 30
0.0
 11
709.313843286352
 21
-58.32835629487428
 31
0.0
  0
LINE
  5
61
330
1F
100
AcDbEntity
  8
1
  6
Continuous
 62
     7
100
AcDbLine
 10
683.313843286352
 20
-103.3283562948743
 30
0.0
 11
696.313843286352
 21
-103.3283562948743
 31
0.0
  0
LINE
  5
62
330
1F
100
AcDbEntity
  8
1
  6
Continuous
 62
     7
100
AcDbLine
 10
683.313843286352
 20
-103.3283562948743
 30
0.0
 11
650.313843286352
 21
-103.3283562948743
 31
0.0
  0
LINE
  5
63
330
1F
100
AcDbEntity
  8
1
  6
Continuous
 62
     7
100
AcDbLine
 10
696.313843286352
 20
-103.3283562948743
 30
0.0
 11
696.313843286352
 21
-99.32835629487433
 31
0.0
  0
LINE
  5
64
330
1F
100
AcDbEntity
  8
1
  6
Continuous
 62
     7
100
AcDbLine
 10
688.313843286352
 20
-68.32835629487427
 30
0.0
 11
688.313843286352
 21
-67.32835629487427
 31
0.0
  0
LINE
  5
65
330
1F
100
AcDbEntity
  8
1
  6
Continuous
 62
     7
100
AcDbLine
 10
688.313843286352
 20
-67.32835629487427
 30
0.0
 11
694.313843286352
 21
-67.32835629487428
 31
0.0
  0
LINE
  5
66
330
1F
100
AcDbEntity
  8
1
  6
Continuous
 62
     7
100
AcDbLine
 10
688.313843286352
 20
-68.32835629487427
 30
0.0
 11
694.313843286352
 21
-68.32835629487428
 31
0.0
  0
LINE
  5
67
330
1F
100
AcDbEntity
  8
1
  6
Continuous
 62
     7
100
AcDbLine
 10
670.405109925477
 20
-98.3313554119988
 30
0.0
 11
662.744256735872
 21
-97.25469271019925
 31
0.0
  0
LINE
  5
68
330
1F
100
AcDbEntity
  8
1
  6
Continuous
 62
     7
100
AcDbLine
 10
662.313843286352
 20
-96.75955867582847
 30
0.0
 11
662.313843286352
 21
-69.89715391392014
 31
0.0
  0
LINE
  5
69
330
1F
100
AcDbEntity
  8
1
  6
Continuous
 62
     7
100
AcDbLine
 10
662.6050836349119
 20
-68.41175181080813
 30
0.0
 11
670.3138432863539
 21
-67.32835629487434
 31
0.0
  0
LINE
  5
6A
330
1F
100
AcDbEntity
  8
1
  6
Continuous
 62
     7
100
AcDbLine
 10
661.313843286352
 20
-69.89715391392048
 30
0.0
 11
661.313843286352
 21
-96.75955867582846
 31
0.0
  0
LINE
  5
6B
330
1F
100
AcDbEntity
  8
1
  6
Continuous
 62
     7
100
AcDbLine
 10
661.313843286352
 20
-96.75955867582846
 30
0.0
 11
661.313843286352
 21
-99.32835629487434
 31
0.0
  0
LINE
  5
6C
330
1F
100
AcDbEntity
  8
1
  6
Continuous
 62
     7
100
AcDbLine
 10
662.6050836349119
 20
-98.2449607789408
 30
0.0
 11
670.313843286352
 21
-99.32835629487434
 31
0.0
  0
LINE
  5
6D
330
1F
100
AcDbEntity
  8
1
  6
Continuous
 62
     7
100
AcDbLine
 10
696.313843286352
 20
-78.98959327269579
 30
0.0
 11
696.313843286352
 21
-67.32835629487428
 31
0.0
  0
LINE
  5
6E
330
1F
100
AcDbEntity
  8
1
  6
Continuous
 62
     7
100
AcDbLine
 10
717.5784111838869
 20
-139.0876474458758
 30
0.0
 11
709.0784111838869
 21
-139.0876474458757
 31
0.0
  0
LINE
  5
6F
330
1F
100
AcDbEntity
  8
1
  6
Continuous
 62
     7
100
AcDbLine
 10
717.5784111838869
 20
-140.0876474458757
 30
0.0
 11
725.5784111838869
 21
-140.0876474458758
 31
0.0
  0
LINE
  5
70
330
1F
100
AcDbEntity
  8
1
  6
Continuous
 62
     7
100
AcDbLine
 10
717.5784111838869
 20
-139.0876474458758
 30
0.0
 11
717.5784111838869
 21
-140.0876474458757
 31
0.0
  0
LINE
  5
71
330
1F
100
AcDbEntity
  8
1
  6
Continuous
 62
     7
100
AcDbLine
 10
725.5784111838869
 20
-139.0876474458759
 30
0.0
 11
717.5784111838869
 21
-139.0876474458758
 31
0.0
  0
LINE
  5
72
330
1F
100
AcDbEntity
  8
1
  6
Continuous
 62
     7
100
AcDbLine
 10
725.5784111838869
 20
-140.0876474458758
 30
0.0
 11
731.5096135648292
 21
-140.0876474458759
 31
0.0
  0
LINE
  5
73
330
1F
100
AcDbEntity
  8
1
  6
Continuous
 62
     7
100
AcDbLine
 10
725.5784111838869
 20
-139.0876474458759
 30
0.0
 11
725.5784111838869
 21
-140.0876474458758
 31
0.0
  0
LINE
  5
74
330
1F
100
AcDbEntity
  8
1
  6
Continuous
 62
     7
100
AcDbLine
 10
731.5784111838869
 20
-139.0831696439649
 30
0.0
 11
731.5784111838869
 21
-140.0860689111559
 31
0.0
  0
LINE
  5
75
330
1F
100
AcDbEntity
  8
1
  6
Continuous
 62
     7
100
AcDbLine
 10
733.0784111838749
 20
-109.0876474458762
 30
0.0
 11
733.0784111838749
 21
-113.0876474458762
 31
0.0
  0
LINE
  5
76
330
1F
100
AcDbEntity
  8
1
  6
DASHED
 62
     2
100
AcDbLine
 10
733.5784111838751
 20
-107.0876474458762
 30
0.0
 11
733.0784111838749
 21
-107.0876474458763
 31
0.0
  0
LINE
  5
77
330
1F
100
AcDbEntity
  8
1
  6
Continuous
 62
     7
100
AcDbLine
 10
707.921137299033
 20
-105.0876474458762
 30
0.0
 11
702.0784111838868
 21
-105.0876474458761
 31
0.0
  0
LINE
  5
78
330
1F
100
AcDbEntity
  8
1
  6
Continuous
 62
     7
100
AcDbLine
 10
702.0784111838868
 20
-105.0876474458761
 30
0.0
 11
698.0784111838752
 21
-105.0876474458761
 31
0.0
  0
LINE
  5
79
330
1F
100
AcDbEntity
  8
1
  6
Continuous
 62
     7
100
AcDbLine
 10
702.0784111838868
 20
-119.5876474458762
 30
0.0
 11
702.0784111838868
 21
-105.0876474458761
 31
0.0
  0
LINE
  5
7A
330
1F
100
AcDbEntity
  8
1
  6
Continuous
 62
     7
100
AcDbLine
 10
734.0784111838756
 20
-113.0876474458762
 30
0.0
 11
734.0784111838752
 21
-131.0876474458762
 31
0.0
  0
LINE
  5
7B
330
1F
100
AcDbEntity
  8
1
  6
Continuous
 62
     7
100
AcDbLine
 10
733.0784111838749
 20
-113.0876474458762
 30
0.0
 11
733.0784111838751
 21
-131.0492735042548
 31
0.0
  0
LINE
  5
7C
330
1F
100
AcDbEntity
  8
1
  6
Continuous
 62
     7
100
AcDbLine
 10
733.0784111838749
 20
-113.0876474458762
 30
0.0
 11
734.0784111838756
 21
-113.0876474458762
 31
0.0
  0
LINE
  5
7D
330
1F
100
AcDbEntity
  8
1
  6
Continuous
 62
     7
100
AcDbLine
 10
734.0784111838749
 20
-105.0876474458762
 30
0.0
 11
722.4175838808796
 21
-105.0876474458762
 31
0.0
  0
LINE
  5
7E
330
1F
100
AcDbEntity
  8
1
  6
Continuous
 62
     7
100
AcDbLine
 10
698.0784111838752
 20
-121.5876474458762
 30
0.0
 11
698.0784111838752
 21
-122.5876474458762
 31
0.0
  0
LINE
  5
7F
330
1F
100
AcDbEntity
  8
1
  6
Continuous
 62
     7
100
AcDbLine
 10
698.0784111838752
 20
-105.0876474458761
 30
0.0
 11
698.0784111838752
 21
-121.5876474458762
 31
0.0
  0
LINE
  5
80
330
1F
100
AcDbEntity
  8
1
  6
Continuous
 62
     7
100
AcDbLine
 10
702.0784111838868
 20
-141.5876474458759
 30
0.0
 11
702.078411183887
 21
-131.0876474458759
 31
0.0
  0
LINE
  5
81
330
1F
100
AcDbEntity
  8
1
  6
Continuous
 62
     7
100
AcDbLine
 10
734.0784111838752
 20
-141.5876474458759
 30
0.0
 11
702.0784111838868
 21
-141.5876474458759
 31
0.0
  0
LINE
  5
82
330
1F
100
AcDbEntity
  8
1
  6
Continuous
 62
     7
100
AcDbLine
 10
734.0784111838749
 20
-105.0876474458762
 30
0.0
 11
734.0784111838749
 21
-107.0876474458762
 31
0.0
  0
LINE
  5
83
330
1F
100
AcDbEntity
  8
1
  6
Continuous
 62
     7
100
AcDbLine
 10
738.0784111838752
 20
-105.0876474458762
 30
0.0
 11
734.0784111838749
 21
-105.0876474458762
 31
0.0
  0
LINE
  5
84
330
1F
100
AcDbEntity
  8
1
  6
DOT_CENTER
 62
     2
100
AcDbLine
 10
738.0784111838751
 20
-160.0876474458759
 30
0.0
 11
740.8300661850104
 21
-160.0876474458759
 31
0.0
  0
LINE
  5
85
330
1F
100
AcDbEntity
  8
1
  6
Continuous
 62
     7
100
AcDbLine
 10
738.0784111838752
 20
-105.0876474458762
 30
0.0
 11
738.0784111838751
 21
-160.0876474458759
 31
0.0
  0
LINE
  5
86
330
1F
100
AcDbEntity
  8
1
  6
Continuous
 62
     7
100
AcDbLine
 10
698.0784111838752
 20
-122.5876474458762
 30
0.0
 11
698.0784111838752
 21
-160.0876474458759
 31
0.0
  0
LINE
  5
87
330
1F
100
AcDbEntity
  8
1
  6
PHANTOM
 62
     2
100
AcDbLine
 10
698.0784111838752
 20
-160.0876474458759
 30
0.0
 11
738.0784111838751
 21
-160.0876474458759
 31
0.0
  0
LINE
  5
88
330
1F
100
AcDbEntity
  8
1
  6
Continuous
 62
     7
100
AcDbLine
 10
734.0784111838749
 20
-107.0876474458762
 30
0.0
 11
733.5784111838751
 21
-107.0876474458762
 31
0.0
  0
LINE
  5
89
330
1F
100
AcDbEntity
  8
1
  6
Continuous
 62
     7
100
AcDbLine
 10
734.0784111838749
 20
-107.0876474458762
 30
0.0
 11
734.0784111838756
 21
-113.0876474458762
 31
0.0
  0
LINE
  5
8A
330
1F
100
AcDbEntity
  8
1
  6
DASHED
 62
     2
100
AcDbLine
 10
733.0784111838749
 20
-107.0876474458763
 30
0.0
 11
733.0784111838749
 21
-109.0876474458762
 31
0.0
  0
LINE
  5
8B
330
1F
100
AcDbEntity
  8
1
  6
Continuous
 62
     7
100
AcDbLine
 10
733.0784111838751
 20
-131.0492735042548
 30
0.0
 11
732.0067572473257
 21
-138.6573873607503
 31
0.0
  0
LINE
  5
8C
330
1F
100
AcDbEntity
  8
1
  6
Continuous
 62
     7
100
AcDbLine
 10
704.1520747685619
 20
-138.6572339963558
 30
0.0
 11
703.0784111838868
 21
-131.0177206339328
 31
0.0
  0
LINE
  5
8D
330
1F
100
AcDbEntity
  8
1
  6
Continuous
 62
     7
100
AcDbLine
 10
703.0784111838868
 20
-131.0177206339328
 30
0.0
 11
703.0784111838868
 21
-119.5876474458762
 31
0.0
  0
LINE
  5
8E
330
1F
100
AcDbEntity
  8
1
  6
Continuous
 62
     7
100
AcDbLine
 10
702.0784111838868
 20
-119.5876474458762
 30
0.0
 11
703.0784111838868
 21
-119.5876474458762
 31
0.0
  0
LINE
  5
8F
330
1F
100
AcDbEntity
  8
1
  6
Continuous
 62
     7
100
AcDbLine
 10
702.078411183887
 20
-131.0876474458759
 30
0.0
 11
703.1618066998204
 21
-138.7964070973161
 31
0.0
  0
LINE
  5
90
330
1F
100
AcDbEntity
  8
1
  6
Continuous
 62
     7
100
AcDbLine
 10
702.078411183887
 20
-131.0876474458759
 30
0.0
 11
702.0784111838868
 21
-119.5876474458762
 31
0.0
  0
LINE
  5
91
330
1F
100
AcDbEntity
  8
1
  6
Continuous
 62
     7
100
AcDbLine
 10
704.6472088029329
 20
-140.0876474458759
 30
0.0
 11
709.0784111838869
 21
-140.0876474458756
 31
0.0
  0
LINE
  5
92
330
1F
100
AcDbEntity
  8
1
  6
Continuous
 62
     7
100
AcDbLine
 10
732.9950156679416
 20
-138.7964070973161
 30
0.0
 11
734.0784111838752
 21
-131.0876474458762
 31
0.0
  0
LINE
  5
93
330
1F
100
AcDbEntity
  8
1
  6
Continuous
 62
     7
100
AcDbLine
 10
734.0784111838752
 20
-131.0876474458762
 30
0.0
 11
734.0784111838752
 21
-141.5876474458759
 31
0.0
  0
LINE
  5
94
330
1F
100
AcDbEntity
  8
1
  6
Continuous
 62
     7
100
AcDbLine
 10
709.0784111838869
 20
-139.0876474458757
 30
0.0
 11
709.0784111838869
 21
-140.0876474458756
 31
0.0
  0
LINE
  5
95
330
1F
100
AcDbEntity
  8
1
  6
Continuous
 62
     7
100
AcDbLine
 10
709.0784111838869
 20
-139.0876474458757
 30
0.0
 11
704.6472088029326
 21
-139.0876474458757
 31
0.0
  0
LINE
  5
96
330
1F
100
AcDbEntity
  8
1
  6
Continuous
 62
     7
100
AcDbLine
 10
731.511644791137
 20
-139.0876474458756
 30
0.0
 11
725.5784111838869
 21
-139.0876474458759
 31
0.0
  0
LINE
  5
97
330
1F
100
AcDbEntity
  8
1
  6
Continuous
 62
     7
100
AcDbLine
 10
709.0784111838869
 20
-140.0876474458756
 30
0.0
 11
717.5784111838869
 21
-140.0876474458757
 31
0.0
  0
LINE
  5
98
330
1F
100
AcDbEntity
  8
1
  6
DOT_CENTER
 62
     2
100
AcDbLine
 10
698.0784111838752
 20
-160.0876474458759
 30
0.0
 11
695.0784111838752
 21
-160.0876474458759
 31
0.0
  0
LINE
  5
99
330
1F
100
AcDbEntity
  8
1
  6
Continuous
 62
     7
100
AcDbLine
 10
729.8910267579485
 20
-134.4894946440714
 30
0.0
 11
728.7516556037135
 21
-136.9328839693573
 31
0.0
  0
LINE
  5
9A
330
1F
100
AcDbEntity
  8
1
  6
Continuous
 62
     7
100
AcDbLine
 10
716.4420226728836
 20
-109.1762782502937
 30
0.0
 11
719.4201280546372
 21
-109.0202023607652
 31
0.0
  0
LINE
  5
9B
330
1F
100
AcDbEntity
  8
1
  6
Continuous
 62
     7
100
AcDbLine
 10
712.0784111838751
 20
-133.0876474458759
 30
0.0
 11
711.0784111838751
 21
-133.0876474458759
 31
0.0
  0
LINE
  5
9C
330
1F
100
AcDbEntity
  8
1
  6
Continuous
 62
     7
100
AcDbLine
 10
709.0784111838751
 20
-131.0876474458759
 30
0.0
 11
709.0784111838751
 21
-120.0876474458759
 31
0.0
  0
LINE
  5
9D
330
1F
100
AcDbEntity
  8
1
  6
Continuous
 62
     7
100
AcDbLine
 10
730.0784111838751
 20
-133.64425812059
 30
0.0
 11
730.0784111838751
 21
-111.0876474458761
 31
0.0
  0
LINE
  5
9E
330
1F
100
AcDbEntity
  8
1
  6
Continuous
 62
     7
100
AcDbLine
 10
732.0784111838751
 20
-109.0876474458759
 30
0.0
 11
733.5784111838751
 21
-109.0876474458763
 31
0.0
  0
LINE
  5
9F
330
1F
100
AcDbEntity
  8
1
  6
Continuous
 62
     7
100
AcDbLine
 10
733.5784111838751
 20
-109.0876474458763
 30
0.0
 11
733.5784111838751
 21
-105.0876474458759
 31
0.0
  0
LINE
  5
A0
330
1F
100
AcDbEntity
  8
1
  6
Continuous
 62
     7
100
AcDbLine
 10
714.0784111838751
 20
-136.0876474458759
 30
0.0
 11
714.0784111838751
 21
-135.0876474458759
 31
0.0
  0
LINE
  5
A1
330
1F
100
AcDbEntity
  8
1
  6
Continuous
 62
     7
100
AcDbLine
 10
702.5784111838751
 20
-116.0876474458759
 30
0.0
 11
702.5784111838751
 21
-105.0876474458759
 31
0.0
  0
LINE
  5
A2
330
1F
100
AcDbEntity
  8
1
  6
Continuous
 62
     7
100
AcDbLine
 10
705.0784111838751
 20
-116.0876474458759
 30
0.0
 11
702.5784111838751
 21
-116.0876474458759
 31
0.0
  0
LINE
  5
A3
330
1F
100
AcDbEntity
  8
1
  6
Continuous
 62
     7
100
AcDbLine
 10
716.0784111838751
 20
-138.0876474458759
 30
0.0
 11
717.4767930666782
 21
-138.0876474458759
 31
0.0
  0
LINE
  5
A4
330
1F
100
AcDbEntity
  8
1
  6
Continuous
 62
     7
100
AcDbLine
 10
717.4767930666782
 20
-138.0876474458759
 30
0.0
 11
726.9390400296403
 21
-138.0876474458759
 31
0.0
  0
LINE
  5
A5
330
1F
100
AcDbEntity
  8
1
  6
DASHED
 62
     2
100
AcDbLine
 10
719.4201280546372
 20
-109.0202023607652
 30
0.0
 11
721.4364199227905
 21
-108.9145329815688
 31
0.0
  0
LINE
  5
A6
330
1F
100
AcDbEntity
  8
1
  6
Continuous
 62
     7
100
AcDbLine
 10
689.5660632044767
 20
-80.47925778147408
 30
0.0
 11
695.9026780959193
 21
-83.87456388035773
 31
0.0
  0
LINE
  5
A7
330
1F
100
AcDbEntity
  8
1
  6
Continuous
 62
     7
100
AcDbLine
 10
691.5088434365737
 20
-76.41496224736403
 30
0.0
 11
705.3676844119187
 21
-83.84085258363702
 31
0.0
  0
LINE
  5
A8
330
1F
100
AcDbEntity
  8
1
  6
Continuous
 62
     7
100
AcDbLine
 10
692.2751450001755
 20
-81.93084701340484
 30
0.0
 11
697.3894343504072
 21
-79.56592005951427
 31
0.0
  0
LINE
  5
A9
330
1F
100
AcDbEntity
  8
1
  6
Continuous
 62
     7
100
AcDbLine
 10
680.2866684008804
 20
-77.97080666263514
 30
0.0
 11
686.9392164683824
 21
-75.96018633975001
 31
0.0
  0
LINE
  5
AA
330
1F
100
AcDbEntity
  8
1
  6
Continuous
 62
     7
100
AcDbLine
 10
686.8096618633484
 20
-80.70037737771122
 30
0.0
 11
688.0428542150798
 21
-80.32766581226929
 31
0.0
  0
LINE
  5
AB
330
1F
100
AcDbEntity
  8
1
  6
Continuous
 62
     7
100
AcDbLine
 10
711.5720975959327
 20
-99.90040001832313
 30
0.0
 11
707.171425355637
 21
-94.23047121849827
 31
0.0
  0
LINE
  5
AC
330
1F
100
AcDbEntity
  8
1
  6
Continuous
 62
     7
100
AcDbLine
 10
714.7150066683092
 20
-110.750908550653
 30
0.0
 11
713.205970962491
 21
-113.5672019412107
 31
0.0
  0
LINE
  5
AD
330
1F
100
AcDbEntity
  8
1
  6
Continuous
 62
     7
100
AcDbLine
 10
711.0515751772881
 20
-102.828529117745
 30
0.0
 11
711.1625258451099
 21
-102.7484602274036
 31
0.0
  0
LINE
  5
AE
330
1F
100
AcDbEntity
  8
1
  6
Continuous
 62
     7
100
AcDbLine
 10
711.0515751772881
 20
-102.828529117745
 30
0.0
 11
714.7150066683092
 21
-110.750908550653
 31
0.0
  0
LINE
  5
AF
330
1F
100
AcDbEntity
  8
1
  6
DASHED
 62
     2
100
AcDbLine
 10
718.5968594480719
 20
-103.5062580201106
 30
0.0
 11
717.5305883424612
 21
-105.4962256899914
 31
0.0
  0
LINE
  5
B0
330
1F
100
AcDbEntity
  8
1
  6
Continuous
 62
     7
100
AcDbLine
 10
705.5061531536074
 20
-106.8304499410075
 30
0.0
 11
711.0515751772881
 21
-102.828529117745
 31
0.0
  0
LINE
  5
B1
330
1F
100
AcDbEntity
  8
1
  6
Continuous
 62
     7
100
AcDbLine
 10
715.507057015492
 20
-89.23345151412167
 30
0.0
 11
717.5615647439594
 21
-96.03121002830419
 31
0.0
  0
LINE
  5
B2
330
1F
100
AcDbEntity
  8
1
  6
DASHED
 62
     2
100
AcDbLine
 10
695.9026780959193
 20
-83.87456388035773
 30
0.0
 11
700.3100465501251
 21
-86.236134726773
 31
0.0
  0
LINE
  5
B3
330
1F
100
AcDbEntity
  8
1
  6
DASHED
 62
     2
100
AcDbLine
 10
705.3676844119187
 20
-83.84085258363702
 30
0.0
 11
708.5571666565811
 21
-85.54985158438228
 31
0.0
  0
LINE
  5
B4
330
1F
100
AcDbEntity
  8
1
  6
DASHED
 62
     2
100
AcDbLine
 10
707.171425355637
 20
-94.23047121849827
 30
0.0
 11
702.2161372710877
 21
-87.84596242351307
 31
0.0
  0
LINE
  5
B5
330
1F
100
AcDbEntity
  8
1
  6
DASHED
 62
     2
100
AcDbLine
 10
717.5615647439594
 20
-96.03121002830419
 30
0.0
 11
718.9000433864813
 21
-100.4598400413162
 31
0.0
  0
LINE
  5
B6
330
1F
100
AcDbEntity
  8
1
  6
Continuous
 62
     7
100
AcDbLine
 10
717.5305883424612
 20
-105.4962256899914
 30
0.0
 11
714.7150066683092
 21
-110.750908550653
 31
0.0
  0
LINE
  5
B7
330
1F
100
AcDbEntity
  8
1
  6
DOT_CENTER
 62
     2
100
AcDbLine
 10
714.9908868770998
 20
-114.5236015322687
 30
0.0
 11
702.1659354906501
 21
-107.6516933594831
 31
0.0
  0
LINE
  5
B8
330
1F
100
AcDbEntity
  8
1
  6
DOT_CENTER
 62
     2
100
AcDbLine
 10
705.1424570974824
 20
-117.5001231391011
 30
0.0
 11
712.0143652702681
 21
-104.675171752651
 31
0.0
  0
LINE
  5
B9
330
1F
100
AcDbEntity
  8
1
  6
DOT_CENTER
 62
     2
100
AcDbLine
 10
686.6443977534833
 20
-84.58629738903346
 30
0.0
 11
676.24340625107
 21
-79.01320347570919
 31
0.0
  0
LINE
  5
BA
330
1F
100
AcDbEntity
  8
1
  6
DOT_CENTER
 62
     2
100
AcDbLine
 10
678.6573550456147
 20
-87.00024618357747
 30
0.0
 11
684.2304489589388
 21
-76.59925468116484
 31
0.0
  0
LINE
  5
BB
330
1F
100
AcDbEntity
  8
1
  6
Continuous
 62
     7
100
AcDbLine
 10
698.6522834821646
 20
-90.24183215077731
 30
0.0
 11
694.571928336046
 21
-95.899384088558
 31
0.0
  0
LINE
  5
BC
330
1F
100
AcDbEntity
  8
1
  6
Continuous
 62
     7
100
AcDbLine
 10
700.9386678331722
 20
-82.50365364038716
 30
0.0
 11
712.1660362880446
 21
-85.89339602820655
 31
0.0
  0
LINE
  5
BD
330
1F
100
AcDbEntity
  8
1
  6
Continuous
 62
     7
100
AcDbLine
 10
715.8516442203208
 20
-92.8422217284815
 30
0.0
 11
721.8388023883225
 21
-104.0082245239317
 31
0.0
  0
LINE
  5
BE
330
1F
100
AcDbEntity
  8
1
  6
Continuous
 62
     7
100
AcDbLine
 10
725.4475555262043
 20
-114.4574001004768
 30
0.0
 11
723.4388575271291
 21
-121.1105288548098
 31
0.0
  0
LINE
  5
BF
330
1F
100
AcDbEntity
  8
1
  6
Continuous
 62
     7
100
AcDbLine
 10
721.0797573421845
 20
-113.3550243739264
 30
0.0
 11
720.707402120657
 21
-114.588324368407
 31
0.0
  0
LINE
  5
C0
330
1F
100
AcDbEntity
  8
1
  6
Continuous
 62
     7
100
AcDbLine
 10
715.1677440947169
 20
-101.0895397907393
 30
0.0
 11
719.4753532963878
 21
-109.1231970013715
 31
0.0
  0
LINE
  5
C1
330
1F
100
AcDbEntity
  8
1
  6
Continuous
 62
     7
100
AcDbLine
 10
713.5573657042453
 20
-99.18391430569939
 30
0.0
 11
701.5002252274493
 21
-89.8314374760005
 31
0.0
  0
LINE
  5
C2
330
1F
100
AcDbEntity
  8
1
  6
Continuous
 62
     7
100
AcDbLine
 10
687.83295177079
 20
-88.20151317153312
 30
0.0
 11
697.8923375859181
 21
-82.80771782225521
 31
0.0
  0
LINE
  5
C3
330
1F
100
AcDbEntity
  8
1
  6
DASHED
 62
     2
100
AcDbLine
 10
719.4753532963878
 20
-109.1231970013715
 30
0.0
 11
721.8388023883225
 21
-104.0082245239317
 31
0.0
  0
LINE
  5
C4
330
1F
100
AcDbEntity
  8
1
  6
Continuous
 62
     7
100
AcDbLine
 10
721.8388023883225
 20
-104.0082245239317
 30
0.0
 11
724.9914592534022
 21
-109.8879047295956
 31
0.0
  0
LINE
  5
C5
330
1F
100
AcDbEntity
  8
1
  6
Continuous
 62
     7
100
AcDbLine
 10
719.4753532963878
 20
-109.1231970013715
 30
0.0
 11
720.9277252512502
 21
-111.8318592502999
 31
0.0
  0
LINE
  5
C6
330
1F
100
AcDbEntity
  8
1
  6
DOT_CENTER
 62
     2
100
AcDbLine
 10
693.751650100774
 20
-99.2398389086478
 30
0.0
 11
686.8760364719304
 21
-86.4168736811016
 31
0.0
  0
LINE
  5
C7
330
1F
100
AcDbEntity
  8
1
  6
DOT_CENTER
 62
     2
100
AcDbLine
 10
696.7253259001252
 20
-89.39054948045263
 30
0.0
 11
683.9023606725789
 21
-96.26616310929622
 31
0.0
  0
LINE
  5
C8
330
1F
100
AcDbEntity
  8
1
  6
DOT_CENTER
 62
     2
100
AcDbLine
 10
714.0287326574046
 20
-96.84911768032222
 30
0.0
 11
707.4130219492391
 21
-84.51086935141196
 31
0.0
  0
LINE
  5
C9
330
1F
100
AcDbEntity
  8
1
  6
DOT_CENTER
 62
     2
100
AcDbLine
 10
716.890001467777
 20
-87.37213816178436
 30
0.0
 11
704.5517531388667
 21
-93.98784886994993
 31
0.0
  0
LINE
  5
CA
330
1F
100
AcDbEntity
  8
1
  6
DOT_CENTER
 62
     2
100
AcDbLine
 10
722.3976290497278
 20
-125.1540920342155
 30
0.0
 11
716.8215300242739
 21
-114.7547112998479
 31
0.0
  0
LINE
  5
CB
330
1F
100
AcDbEntity
  8
1
  6
DOT_CENTER
 62
     2
100
AcDbLine
 10
724.8092699041846
 20
-117.1663521543046
 30
0.0
 11
714.4098891698172
 21
-122.7424511797586
 31
0.0
  0
LINE
  5
CC
330
1F
100
AcDbEntity
  8
1
  6
Continuous
 62
     7
100
AcDbLine
 10
690.313843286352
 20
-71.07835629487434
 30
0.0
 11
664.813843286352
 21
-71.07835629487434
 31
0.0
  0
LINE
  5
CD
330
1F
100
AcDbEntity
  8
1
  6
Continuous
 62
     7
100
AcDbLine
 10
692.313843286352
 20
-68.57835629487434
 30
0.0
 11
692.313843286352
 21
-69.07835629487434
 31
0.0
  0
LINE
  5
CE
330
1F
100
AcDbEntity
  8
1
  6
Continuous
 62
     7
100
AcDbLine
 10
696.313843286352
 20
-68.57835629487434
 30
0.0
 11
692.313843286352
 21
-68.57835629487434
 31
0.0
  0
LINE
  5
CF
330
1F
100
AcDbEntity
  8
1
  6
Continuous
 62
     7
100
AcDbLine
 10
681.3138432863523
 20
-92.07835629487434
 30
0.0
 11
664.813843286352
 21
-92.07835629487434
 31
0.0
  0
LINE
  5
D0
330
1F
100
AcDbEntity
  8
1
  6
Continuous
 62
     7
100
AcDbLine
 10
696.313843286352
 20
-98.07835629487434
 30
0.0
 11
685.313843286352
 21
-98.07835629487434
 31
0.0
  0
LINE
  5
D1
330
1F
100
AcDbEntity
  8
1
  6
Continuous
 62
     7
100
AcDbLine
 10
685.313843286352
 20
-98.07835629487434
 30
0.0
 11
685.313843286352
 21
-96.07835629487394
 31
0.0
  0
LINE
  5
D2
330
1F
100
AcDbEntity
  8
1
  6
Continuous
 62
     7
100
AcDbLine
 10
662.813843286352
 20
-73.07835629487434
 30
0.0
 11
662.813843286352
 21
-74.04152816130053
 31
0.0
  0
LINE
  5
D3
330
1F
100
AcDbEntity
  8
1
  6
DASHED
 62
     2
100
AcDbLine
 10
692.4869577506612
 20
-79.97034755595904
 30
0.0
 11
692.3812332312154
 21
-81.98769156274878
 31
0.0
  0
LINE
  5
D4
330
1F
100
AcDbEntity
  8
1
  6
Continuous
 62
     7
100
AcDbLine
 10
662.813843286352
 20
-74.04152816130053
 30
0.0
 11
662.813843286352
 21
-83.29890992865523
 31
0.0
  0
LINE
  5
D5
330
1F
100
AcDbEntity
  8
1
  6
Continuous
 62
     7
100
AcDbLine
 10
662.813843286352
 20
-83.29890992865523
 30
0.0
 11
662.813843286352
 21
-90.07835629487434
 31
0.0
  0
LINE
  5
D6
330
1F
100
AcDbEntity
  8
1
  6
Continuous
 62
     7
100
AcDbLine
 10
692.3812332312154
 20
-81.98769156274878
 30
0.0
 11
692.2252124819363
 21
-84.96474480586588
 31
0.0
  0
ARC
  5
D7
330
1F
100
AcDbEntity
  8
1
  6
Continuous
 62
     7
100
AcDbCircle
 10
662.813843286352
 20
-69.89715391392048
 30
0.0
 40
1.499999999999997
100
AcDbArc
 50
98.0000000000008
 51
180.0
  0
ARC
  5
D8
330
1F
100
AcDbEntity
  8
1
  6
Continuous
 62
     7
100
AcDbCircle
 10
662.813843286352
 20
-96.75955867582847
 30
0.0
 40
1.5
100
AcDbArc
 50
179.9999999999995
 51
261.9999999999991
  0
ARC
  5
D9
330
1F
100
AcDbEntity
  8
1
  6
Continuous
 62
     7
100
AcDbCircle
 10
853.9831611946913
 20
-106.9941060253824
 30
0.0
 40
130.5
100
AcDbArc
 50
189.653625536832
 51
192.0412395406185
  0
ARC
  5
DA
330
1F
100
AcDbEntity
  8
1
  6
Continuous
 62
     7
100
AcDbCircle
 10
853.9831611946913
 20
-106.9941060253824
 30
0.0
 40
130.5
100
AcDbArc
 50
185.3227150052095
 51
189.653625536832
  0
ARC
  5
DB
330
1F
100
AcDbEntity
  8
1
  6
DOT_CENTER
 62
     2
100
AcDbCircle
 10
853.9831611946913
 20
-106.9941060253824
 30
0.0
 40
135.0
100
AcDbArc
 50
179.4251159140662
 51
195.919979278402
  0
ARC
  5
DC
330
1F
100
AcDbEntity
  8
1
  6
Continuous
 62
     7
100
AcDbCircle
 10
853.9831611946913
 20
-106.9941060253824
 30
0.0
 40
130.5000000000001
100
AcDbArc
 50
192.0412395406185
 51
193.7741155845596
  0
ARC
  5
DD
330
1F
100
AcDbEntity
  8
1
  6
Continuous
 62
     7
100
AcDbCircle
 10
853.9831611946913
 20
-106.9941060253824
 30
0.0
 40
139.5000000000001
100
AcDbArc
 50
181.7418230039667
 51
192.8789963356045
  0
ARC
  5
DE
330
1F
100
AcDbEntity
  8
1
  6
DASHED
 62
     2
100
AcDbCircle
 10
853.9831611946913
 20
-106.9941060253824
 30
0.0
 40
130.5000000000001
100
AcDbArc
 50
181.694336556107
 51
185.3227150052095
  0
ARC
  5
DF
330
1F
100
AcDbEntity
  8
1
  6
Continuous
 62
     7
100
AcDbCircle
 10
708.5784111838752
 20
-111.0876474458761
 30
0.0
 40
5.249999999999538
100
AcDbArc
 50
286.8165554961103
 51
331.8165554961146
  0
ARC
  5
E0
330
1F
100
AcDbEntity
  8
1
  6
Continuous
 62
     7
100
AcDbCircle
 10
708.5784111838752
 20
-111.0876474458761
 30
0.0
 40
5.250000000000414
100
AcDbArc
 50
125.8165554961123
 51
286.8165554961103
  0
ARC
  5
E1
330
1F
100
AcDbEntity
  8
1
  6
Continuous
 62
     7
100
AcDbCircle
 10
681.4439020022762
 20
-81.79975043237118
 30
0.0
 40
3.999999999999986
100
AcDbArc
 50
106.8165554961054
 51
352.1922371439519
  0
ARC
  5
E2
330
1F
100
AcDbEntity
  8
1
  6
Continuous
 62
     7
100
AcDbCircle
 10
690.313843286352
 20
-92.82835629487434
 30
0.0
 40
5.249999999999758
100
AcDbArc
 50
118.1999999999949
 51
163.199999999998
  0
ARC
  5
E3
330
1F
100
AcDbEntity
  8
1
  6
Continuous
 62
     7
100
AcDbCircle
 10
710.720877303322
 20
-90.67999351586701
 30
0.0
 40
4.999999999999746
100
AcDbArc
 50
349.9867892982596
 51
28.1999999999933
  0
ARC
  5
E4
330
1F
100
AcDbEntity
  8
1
  6
Continuous
 62
     7
100
AcDbCircle
 10
690.313843286352
 20
-92.82835629487434
 30
0.0
 40
5.249999999999723
100
AcDbArc
 50
163.199999999998
 51
324.1999999999929
  0
ARC
  5
E5
330
1F
100
AcDbEntity
  8
1
  6
Continuous
 62
     7
100
AcDbCircle
 10
719.6095795370009
 20
-119.9544016670319
 30
0.0
 40
4.000000000000189
100
AcDbArc
 50
97.82431835215561
 51
343.1999999999999
  0
ARC
  5
E6
330
1F
100
AcDbEntity
  8
1
  6
DOT_CENTER
 62
     2
100
AcDbCircle
 10
694.4073847068477
 20
52.57639371594175
 30
0.0
 40
135.0
100
AcDbArc
 50
254.0800207215979
 51
270.5748840859338
  0
ARC
  5
E7
330
1F
100
AcDbEntity
  8
1
  6
DASHED
 62
     2
100
AcDbCircle
 10
694.4073847068477
 20
52.57639371594175
 30
0.0
 40
130.5
100
AcDbArc
 50
264.6783613264527
 51
268.305663443893
  0
ARC
  5
E8
330
1F
100
AcDbEntity
  8
1
  6
Continuous
 62
     7
100
AcDbCircle
 10
694.4073847068477
 20
52.57639371594175
 30
0.0
 40
139.5
100
AcDbArc
 50
256.910253749124
 51
268.2581769960333
  0
ARC
  5
E9
330
1F
100
AcDbEntity
  8
1
  6
Continuous
 62
     7
100
AcDbCircle
 10
694.4073847068477
 20
52.57639371594175
 30
0.0
 40
130.5
100
AcDbArc
 50
255.9897128650834
 51
264.6783613264527
  0
ARC
  5
EA
330
1F
100
AcDbEntity
  8
1
  6
DASHED
 62
     2
100
AcDbCircle
 10
710.720877303322
 20
-90.67999351586701
 30
0.0
 40
5.000000000000165
100
AcDbArc
 50
73.19999999999857
 51
100.0297661978514
  0
ARC
  5
EB
330
1F
100
AcDbEntity
  8
1
  6
Continuous
 62
     7
100
AcDbCircle
 10
710.720877303322
 20
-90.67999351586701
 30
0.0
 40
4.99999999999975
100
AcDbArc
 50
28.1999999999933
 51
73.19999999999857
  0
CIRCLE
  5
EC
330
1F
100
AcDbEntity
  8
1
  6
Continuous
 62
     7
100
AcDbCircle
 10
681.4439020022762
 20
-81.79975043237118
 30
0.0
 40
2.499999999999742
  0
CIRCLE
  5
ED
330
1F
100
AcDbEntity
  8
1
  6
Continuous
 62
     7
100
AcDbCircle
 10
708.5784111838752
 20
-111.0876474458761
 30
0.0
 40
2.749999999999782
  0
CIRCLE
  5
EE
330
1F
100
AcDbEntity
  8
1
  6
Continuous
 62
     7
100
AcDbCircle
 10
719.6095795370009
 20
-119.9544016670319
 30
0.0
 40
2.500000000000061
  0
CIRCLE
  5
EF
330
1F
100
AcDbEntity
  8
1
  6
Continuous
 62
     7
100
AcDbCircle
 10
710.720877303322
 20
-90.67999351586701
 30
0.0
 40
2.499999999999958
  0
CIRCLE
  5
F0
330
1F
100
AcDbEntity
  8
1
  6
Continuous
 62
     7
100
AcDbCircle
 10
690.313843286352
 20
-92.82835629487434
 30
0.0
 40
2.749999999999756
  0
ARC
  5
F1
330
1F
100
AcDbEntity
  8
1
  6
Continuous
 62
     7
100
AcDbCircle
 10
662.813843286352
 20
-69.89715391392048
 30
0.0
 40
0.5000000000003179
100
AcDbArc
 50
97.99999999999565
 51
179.9999999999609
  0
ARC
  5
F2
330
1F
100
AcDbEntity
  8
1
  6
Continuous
 62
     7
100
AcDbCircle
 10
662.813843286352
 20
-96.75955867582847
 30
0.0
 40
0.5
100
AcDbArc
 50
180.0
 51
261.9999999999991
  0
ARC
  5
F3
330
1F
100
AcDbEntity
  8
1
  6
Continuous
 62
     7
100
AcDbCircle
 10
731.511644791137
 20
-138.5876474458756
 30
0.0
 40
0.5
100
AcDbArc
 50
270.0
 51
277.6737865392435
  0
ARC
  5
F4
330
1F
100
AcDbEntity
  8
1
  6
Continuous
 62
     7
100
AcDbCircle
 10
731.5096135648294
 20
-138.5876474458759
 30
0.0
 40
1.5
100
AcDbArc
 50
269.9999999999956
 51
272.6287976838361
  0
ARC
  5
F5
330
1F
100
AcDbEntity
  8
1
  6
Continuous
 62
     7
100
AcDbCircle
 10
731.511644791137
 20
-138.5876474458756
 30
0.0
 40
0.5000000000000988
100
AcDbArc
 50
277.6737865392435
 51
351.9822526359732
  0
ARC
  5
F6
330
1F
100
AcDbEntity
  8
1
  6
Continuous
 62
     7
100
AcDbCircle
 10
704.6472088029326
 20
-138.5876474458757
 30
0.0
 40
0.4999999999999498
100
AcDbArc
 50
188.0000000000115
 51
270.0
  0
ARC
  5
F7
330
1F
100
AcDbEntity
  8
1
  6
Continuous
 62
     7
100
AcDbCircle
 10
704.6472088029326
 20
-138.5876474458757
 30
0.0
 40
1.499999999999853
100
AcDbArc
 50
188.0000000000125
 51
270.000000000013
  0
ARC
  5
F8
330
1F
100
AcDbEntity
  8
1
  6
Continuous
 62
     7
100
AcDbCircle
 10
731.5096135648294
 20
-138.5876474458759
 30
0.0
 40
1.49999999999997
100
AcDbArc
 50
272.6287976838361
 51
351.9999999999956
  0
ARC
  5
F9
330
1F
100
AcDbEntity
  8
1
  6
Continuous
 62
     7
100
AcDbCircle
 10
726.9390400296403
 20
-136.0876474458759
 30
0.0
 40
2.0
100
AcDbArc
 50
270.0
 51
278.5413897102001
  0
ARC
  5
FA
330
1F
100
AcDbEntity
  8
1
  6
Continuous
 62
     7
100
AcDbCircle
 10
728.0784111838751
 20
-133.64425812059
 30
0.0
 40
2.000000000000039
100
AcDbArc
 50
334.9999999999999
 51
0.0
  0
ARC
  5
FB
330
1F
100
AcDbEntity
  8
1
  6
Continuous
 62
     7
100
AcDbCircle
 10
726.9390400296403
 20
-136.0876474458759
 30
0.0
 40
2.000000000000094
100
AcDbArc
 50
278.5413897102001
 51
334.9999999999986
  0
ARC
  5
FC
330
1F
100
AcDbEntity
  8
1
  6
DASHED
 62
     2
100
AcDbCircle
 10
721.5410918352765
 20
-110.911792051078
 30
0.0
 40
1.999999999999896
100
AcDbArc
 50
1.69433655610628
 51
93.00000000000225
  0
ARC
  5
FD
330
1F
100
AcDbEntity
  8
1
  6
DASHED
 62
     2
100
AcDbCircle
 10
716.5466945853696
 20
-111.1735373198029
 30
0.0
 40
2.000000000000049
100
AcDbArc
 50
126.9193323326405
 51
181.7418230039653
  0
ARC
  5
FE
330
1F
100
AcDbEntity
  8
1
  6
Continuous
 62
     7
100
AcDbCircle
 10
732.0784111838751
 20
-111.0876474458759
 30
0.0
 40
2.0
100
AcDbArc
 50
90.0
 51
180.0000000000057
  0
ARC
  5
FF
330
1F
100
AcDbEntity
  8
1
  6
Continuous
 62
     7
100
AcDbCircle
 10
716.0784111838751
 20
-136.0876474458759
 30
0.0
 40
2.0
100
AcDbArc
 50
180.0
 51
270.0
  0
ARC
  5
100
330
1F
100
AcDbEntity
  8
1
  6
Continuous
 62
     7
100
AcDbCircle
 10
705.0784111838751
 20
-120.0876474458759
 30
0.0
 40
4.0
100
AcDbArc
 50
0.0
 51
90.0
  0
ARC
  5
101
330
1F
100
AcDbEntity
  8
1
  6
Continuous
 62
     7
100
AcDbCircle
 10
712.0784111838751
 20
-135.0876474458759
 30
0.0
 40
2.0
100
AcDbArc
 50
0.0
 51
90.0
  0
ARC
  5
102
330
1F
100
AcDbEntity
  8
1
  6
Continuous
 62
     7
100
AcDbCircle
 10
711.0784111838751
 20
-131.0876474458759
 30
0.0
 40
2.0
100
AcDbArc
 50
180.0
 51
270.0
  0
ARC
  5
103
330
1F
100
AcDbEntity
  8
1
  6
Continuous
 62
     7
100
AcDbCircle
 10
716.5466945853696
 20
-111.1735373198029
 30
0.0
 40
2.000000000000055
100
AcDbArc
 50
93.00000000000225
 51
126.9193323326405
  0
ARC
  5
104
330
1F
100
AcDbEntity
  8
1
  6
DASHED
 62
     2
100
AcDbCircle
 10
715.0710996167453
 20
-101.6170736427125
 30
0.0
 40
4.000000000000134
100
AcDbArc
 50
331.8165554961124
 51
16.81655549611262
  0
ARC
  5
105
330
1F
100
AcDbEntity
  8
1
  6
Continuous
 62
     7
100
AcDbCircle
 10
709.9921418335797
 20
-101.1266707017394
 30
0.0
 40
1.999999999999934
100
AcDbArc
 50
305.8165554961049
 51
37.81655549611234
  0
ARC
  5
106
330
1F
100
AcDbEntity
  8
1
  6
Continuous
 62
     7
100
AcDbCircle
 10
688.6750668704765
 20
-81.70360199435379
 30
0.0
 40
6.000000000000122
100
AcDbArc
 50
61.81655549611156
 51
106.8165554961104
  0
ARC
  5
107
330
1F
100
AcDbEntity
  8
1
  6
Continuous
 62
     7
100
AcDbCircle
 10
688.6214710157777
 20
-82.24213769713737
 30
0.0
 40
2.00000000000002
100
AcDbArc
 50
61.81655549611494
 51
106.816555496105
  0
ARC
  5
108
330
1F
100
AcDbEntity
  8
1
  6
DASHED
 62
     2
100
AcDbCircle
 10
709.5017588452802
 20
-83.78697166871905
 30
0.0
 40
2.000000000000024
100
AcDbArc
 50
241.8165554961113
 51
280.0297661978449
  0
ARC
  5
109
330
1F
100
AcDbEntity
  8
1
  6
Continuous
 62
     7
100
AcDbCircle
 10
687.3882786640464
 20
-82.61484926257953
 30
0.0
 40
2.000000000000298
100
AcDbArc
 50
106.8165554961062
 51
172.1922371439361
  0
ARC
  5
10A
330
1F
100
AcDbEntity
  8
1
  6
DASHED
 62
     2
100
AcDbCircle
 10
697.4762699840278
 20
-91.52477447376253
 30
0.0
 40
6.000000000000143
100
AcDbArc
 50
37.8165554961125
 51
61.81655549610957
  0
ARC
  5
10B
330
1F
100
AcDbEntity
  8
1
  6
Continuous
 62
     7
100
AcDbCircle
 10
717.614251124451
 20
-91.89712019874372
 30
0.0
 40
2.000000000000036
100
AcDbArc
 50
169.9867892982523
 51
208.1999999999893
  0
ARC
  5
10C
330
1F
100
AcDbEntity
  8
1
  6
Continuous
 62
     7
100
AcDbCircle
 10
718.7927631255926
 20
-114.010260774518
 30
0.0
 40
1.999999999999959
100
AcDbArc
 50
277.8243183521693
 51
343.2000000000004
  0
ARC
  5
10D
330
1F
100
AcDbEntity
  8
1
  6
Continuous
 62
     7
100
AcDbCircle
 10
709.8799233823269
 20
-103.9248443799533
 30
0.0
 40
5.999999999999929
100
AcDbArc
 50
28.1999999999969
 51
52.19999999999441
  0
ARC
  5
10E
330
1F
100
AcDbEntity
  8
1
  6
Continuous
 62
     7
100
AcDbCircle
 10
700.2744111201432
 20
-91.41174750075196
 30
0.0
 40
2.000000000000127
100
AcDbArc
 50
52.19999999999879
 51
144.1999999999936
  0
ARC
  5
10F
330
1F
100
AcDbEntity
  8
1
  6
Continuous
 62
     7
100
AcDbCircle
 10
699.782540645394
 20
-86.33293163051535
 30
0.0
 40
4.000000000000022
100
AcDbArc
 50
73.19999999999503
 51
118.1999999999947
  0
ARC
  5
110
330
1F
100
AcDbEntity
  8
1
  6
Continuous
 62
     7
100
AcDbCircle
 10
719.1651183471201
 20
-112.7769607800378
 30
0.0
 40
2.000000000000122
100
AcDbArc
 50
343.2000000000113
 51
28.19999999999376
  0
ARC
  5
111
330
1F
100
AcDbEntity
  8
1
  6
Continuous
 62
     7
100
AcDbCircle
 10
719.7036385410121
 20
-112.7232093188095
 30
0.0
 40
5.99999999999993
100
AcDbArc
 50
343.199999999995
 51
28.19999999999543
  0
ARC
  5
112
330
1F
100
AcDbEntity
  8
1
  6
Continuous
 62
     7
100
AcDbCircle
 10
690.313843286352
 20
-69.07835629487434
 30
0.0
 40
2.0
100
AcDbArc
 50
270.0
 51
0.0
  0
ARC
  5
113
330
1F
100
AcDbEntity
  8
1
  6
Continuous
 62
     7
100
AcDbCircle
 10
664.813843286352
 20
-73.07835629487434
 30
0.0
 40
2.0
100
AcDbArc
 50
90.0
 51
180.0
  0
ARC
  5
114
330
1F
100
AcDbEntity
  8
1
  6
Continuous
 62
     7
100
AcDbCircle
 10
664.813843286352
 20
-90.07835629487434
 30
0.0
 40
2.0
100
AcDbArc
 50
180.0
 51
270.0
  0
ARC
  5
115
330
1F
100
AcDbEntity
  8
1
  6
Continuous
 62
     7
100
AcDbCircle
 10
681.313843286352
 20
-96.07835629487434
 30
0.0
 40
4.0
100
AcDbArc
 50
0.0000000000057
 51
89.99999999999675
  0
ARC
  5
116
330
1F
100
AcDbEntity
  8
1
  6
DASHED
 62
     2
100
AcDbCircle
 10
690.489698681152
 20
-79.86567564347314
 30
0.0
 40
1.999999999999994
100
AcDbArc
 50
356.9999999999997
 51
88.30566344389297
  0
ARC
  5
117
330
1F
100
AcDbEntity
  8
1
  6
Continuous
 62
     7
100
AcDbCircle
 10
690.2279534124272
 20
-84.86007289337999
 30
0.0
 40
2.000000000000027
100
AcDbArc
 50
323.1696536258884
 51
357.0000000000001
  0
ARC
  5
118
330
1F
100
AcDbEntity
  8
1
  6
DASHED
 62
     2
100
AcDbCircle
 10
690.2279534124272
 20
-84.86007289337999
 30
0.0
 40
2.000000000000029
100
AcDbArc
 50
268.258176996033
 51
323.1696536258884
  0
ENDSEC
  0
SECTION
  2
OBJECTS
  0
DICTIONARY
  5
C
330
0
100
AcDbDictionary
281
     1
  3
ACAD_GROUP
350
D
  3
ACAD_LAYOUT
350
1A
  3
ACAD_MLEADERSTYLE
350
11A
  3
ACAD_MLINESTYLE
350
17
  3
ACAD_PLOTSETTINGS
350
19
  3
ACAD_PLOTSTYLENAME
350
E
  3
ACAD_TABLESTYLE
350
119
  3
ACAD_VISUALSTYLE
350
2A
  0
DICTIONARY
  5
D
102
{ACAD_REACTORS
330
C
102
}
330
C
100
AcDbDictionary
281
     1
  0
DICTIONARY
  5
1A
102
{ACAD_REACTORS
330
C
102
}
330
C
100
AcDbDictionary
281
     1
  3
Layout1
350
1E
  3
Layout2
350
26
  3
Model
350
22
  0
DICTIONARY
  5
11A
102
{ACAD_REACTORS
330
C
102
}
330
C
100
AcDbDictionary
281
     1
  0
DICTIONARY
  5
17
102
{ACAD_REACTORS
330
C
102
}
330
C
100
AcDbDictionary
281
     1
  3
Standard
350
18
  0
DICTIONARY
  5
19
102
{ACAD_REACTORS
330
C
102
}
330
C
100
AcDbDictionary
281
     1
  0
ACDBDICTIONARYWDFLT
  5
E
102
{ACAD_REACTORS
330
C
102
}
330
C
100
AcDbDictionary
281
     1
  3
Normal
350
F
100
AcDbDictionaryWithDefault
340
F
  0
DICTIONARY
  5
119
102
{ACAD_REACTORS
330
C
102
}
330
C
100
AcDbDictionary
281
     1
  0
DICTIONARY
  5
2A
102
{ACAD_REACTORS
330
C
102
}
330
C
100
AcDbDictionary
281
     1
  3
2dWireframe
350
2F
  3
3D Hidden
350
31
  3
3dWireframe
350
30
  3
Basic
350
32
  3
Brighten
350
36
  3
ColorChange
350
3A
  3
Conceptual
350
34
  3
Dim
350
35
  3
Facepattern
350
39
  3
Flat
350
2B
  3
FlatWithEdges
350
2C
  3
Gouraud
350
2D
  3
GouraudWithEdges
350
2E
  3
Linepattern
350
38
  3
Realistic
350
33
  3
Thicken
350
37
  0
LAYOUT
  5
1E
102
{ACAD_REACTORS
330
1A
102
}
330
1A
100
AcDbPlotSettings
  1

  2
none_device
  4

  6

 40
0.0
 41
0.0
 42
0.0
 43
0.0
 44
0.0
 45
0.0
 46
0.0
 47
0.0
 48
0.0
 49
0.0
140
0.0
141
0.0
142
1.0
143
1.0
 70
   688
 72
     0
 73
     0
 74
     5
  7

 75
    16
 76
     0
 77
     2
 78
   300
147
1.0
148
0.0
149
0.0
100
AcDbLayout
  1
Layout1
 70
     1
 71
     1
 10
0.0
 20
0.0
 11
12.0
 21
9.0
 12
0.0
 22
0.0
 32
0.0
 14
1.00000000000000E+20
 24
1.00000000000000E+20
 34
1.00000000000000E+20
 15
-1.00000000000000E+20
 25
-1.00000000000000E+20
 35
-1.00000000000000E+20
146
0.0
 13
0.0
 23
0.0
 33
0.0
 16
1.0
 26
0.0
 36
0.0
 17
0.0
 27
1.0
 37
0.0
 76
     0
330
1B
  0
LAYOUT
  5
26
102
{ACAD_REACTORS
330
1A
102
}
330
1A
100
AcDbPlotSettings
  1

  2
none_device
  4

  6

 40
0.0
 41
0.0
 42
0.0
 43
0.0
 44
0.0
 45
0.0
 46
0.0
 47
0.0
 48
0.0
 49
0.0
140
0.0
141
0.0
142
1.0
143
1.0
 70
   688
 72
     0
 73
     0
 74
     5
  7

 75
    16
 76
     0
 77
     2
 78
   300
147
1.0
148
0.0
149
0.0
100
AcDbLayout
  1
Layout2
 70
     1
 71
     2
 10
0.0
 20
0.0
 11
0.0
 21
0.0
 12
0.0
 22
0.0
 32
0.0
 14
0.0
 24
0.0
 34
0.0
 15
0.0
 25
0.0
 35
0.0
146
0.0
 13
0.0
 23
0.0
 33
0.0
 16
1.0
 26
0.0
 36
0.0
 17
0.0
 27
1.0
 37
0.0
 76
     0
330
23
  0
LAYOUT
  5
22
102
{ACAD_REACTORS
330
1A
102
}
330
1A
100
AcDbPlotSettings
  1

  2
none_device
  4

  6

 40
0.0
 41
0.0
 42
0.0
 43
0.0
 44
0.0
 45
0.0
 46
0.0
 47
0.0
 48
0.0
 49
0.0
140
0.0
141
0.0
142
1.0
143
1.0
 70
  1712
 72
     0
 73
     0
 74
     0
  7

 75
     0
 76
     0
 77
     2
 78
   300
147
1.0
148
0.0
149
0.0
100
AcDbLayout
  1
Model
 70
     1
 71
     0
 10
0.0
 20
0.0
 11
12.0
 21
9.0
 12
0.0
 22
0.0
 32
0.0
 14
645.845574750127
 24
-160.0876474458759
 34
0.0
 15
740.8300661850104
 25
-41.26283953055159
 35
0.0
146
0.0
 13
0.0
 23
0.0
 33
0.0
 16
1.0
 26
0.0
 36
0.0
 17
0.0
 27
1.0
 37
0.0
 76
     0
330
1F
331
29
  0
MLINESTYLE
  5
18
102
{ACAD_REACTORS
330
17
102
}
330
17
100
AcDbMlineStyle
  2
Standard
 70
     0
  3

 62
   256
 51
90.0
 52
90.0
 71
     2
 49
0.5
 62
   256
  6
BYLAYER
 49
-0.5
 62
   256
  6
BYLAYER
  0
ACDBPLACEHOLDER
  5
F
102
{ACAD_REACTORS
330
E
102
}
330
E
  0
VISUALSTYLE
  5
2F
102
{ACAD_REACTORS
330
2A
102
}
330
2A
100
AcDbVisualStyle
  2
2dWireframe
 70
     4
 71
     0
 72
     2
 73
     0
 90
        0
 40
-0.6
 41
-30.0
 62
     5
 63
     7
421
 16777215
 74
     1
 91
        4
 64
     7
 65
   257
 75
     1
175
     1
 42
1.0
 92
        0
 66
   257
 43
1.0
 76
     1
 77
     6
 78
     2
 67
     7
 79
     5
170
     0
171
     0
290
     0
174
     0
 93
        1
 44
0.0
173
     0
291
     0
 45
0.0
1001
ACAD
1000
AcDbSavedByObjectVersion
1070
     0
  0
VISUALSTYLE
  5
31
102
{ACAD_REACTORS
330
2A
102
}
330
2A
100
AcDbVisualStyle
  2
3D Hidden
 70
     6
 71
     1
 72
     2
 73
     2
 90
        0
 40
-0.6
 41
-30.0
 62
     5
 63
     7
421
 16777215
 74
     2
 91
        2
 64
     7
 65
   257
 75
     2
175
     1
 42
40.0
 92
        0
 66
   257
 43
1.0
 76
     1
 77
     6
 78
     2
 67
     7
 79
     3
170
     0
171
     0
290
     0
174
     0
 93
        1
 44
0.0
173
     0
291
     0
 45
0.0
1001
ACAD
1000
AcDbSavedByObjectVersion
1070
     0
  0
VISUALSTYLE
  5
30
102
{ACAD_REACTORS
330
2A
102
}
330
2A
100
AcDbVisualStyle
  2
3dWireframe
 70
     5
 71
     0
 72
     2
 73
     0
 90
        0
 40
-0.6
 41
-30.0
 62
     5
 63
     7
421
 16777215
 74
     1
 91
        4
 64
     7
 65
   257
 75
     1
175
     1
 42
1.0
 92
        0
 66
   257
 43
1.0
 76
     1
 77
     6
 78
     2
 67
     7
 79
     5
170
     0
171
     0
290
     0
174
     0
 93
        1
 44
0.0
173
     0
291
     0
 45
0.0
1001
ACAD
1000
AcDbSavedByObjectVersion
1070
     0
  0
VISUALSTYLE
  5
32
102
{ACAD_REACTORS
330
2A
102
}
330
2A
100
AcDbVisualStyle
  2
Basic
 70
     7
 71
     1
 72
     0
 73
     1
 90
        0
 40
-0.6
 41
-30.0
 62
     5
 63
     7
421
 16777215
 74
     0
 91
        4
 64
     7
 65
   257
 75
     1
175
     1
 42
1.0
 92
        8
 66
     7
 43
1.0
 76
     1
 77
     6
 78
     2
 67
     7
 79
     5
170
     0
171
     0
290
     0
174
     0
 93
        1
 44
0.0
173
     0
291
     1
 45
0.0
1001
ACAD
1000
AcDbSavedByObjectVersion
1070
     0
  0
VISUALSTYLE
  5
36
102
{ACAD_REACTORS
330
2A
102
}
330
2A
100
AcDbVisualStyle
  2
Brighten
 70
    12
 71
     2
 72
     2
 73
     0
 90
        0
 40
-0.6
 41
-30.0
 62
     5
 63
     7
421
 16777215
 74
     1
 91
        4
 64
     7
 65
   257
 75
     1
175
     1
 42
1.0
 92
        8
 66
     7
 43
1.0
 76
     1
 77
     6
 78
     2
 67
     7
 79
     5
170
     0
171
     0
290
     0
174
     0
 93
        1
 44
50.0
173
     0
291
     1
 45
0.0
1001
ACAD
1000
AcDbSavedByObjectVersion
1070
     0
  0
VISUALSTYLE
  5
3A
102
{ACAD_REACTORS
330
2A
102
}
330
2A
100
AcDbVisualStyle
  2
ColorChange
 70
    16
 71
     2
 72
     2
 73
     3
 90
        0
 40
-0.6
 41
-30.0
 62
     5
 63
     8
421
  8421504
 74
     1
 91
        4
 64
     7
 65
   257
 75
     1
175
     1
 42
1.0
 92
        8
 66
     8
424
  8421504
 43
1.0
 76
     1
 77
     6
 78
     2
 67
     7
 79
     5
170
     0
171
     0
290
     0
174
     0
 93
        1
 44
0.0
173
     0
291
     1
 45
0.0
1001
ACAD
1000
AcDbSavedByObjectVersion
1070
     0
  0
VISUALSTYLE
  5
34
102
{ACAD_REACTORS
330
2A
102
}
330
2A
100
AcDbVisualStyle
  2
Conceptual
 70
     9
 71
     3
 72
     2
 73
     0
 90
        0
 40
-0.6
 41
-30.0
 62
     5
 63
     7
421
 16777215
 74
     2
 91
        2
 64
     7
 65
   257
 75
     1
175
     1
 42
40.0
 92
        8
 66
     7
 43
1.0
 76
     1
 77
     6
 78
     2
 67
     7
 79
     3
170
     0
171
     0
290
     0
174
     0
 93
        1
 44
0.0
173
     0
291
     0
 45
0.0
1001
ACAD
1000
AcDbSavedByObjectVersion
1070
     0
  0
VISUALSTYLE
  5
35
102
{ACAD_REACTORS
330
2A
102
}
330
2A
100
AcDbVisualStyle
  2
Dim
 70
    11
 71
     2
 72
     2
 73
     0
 90
        0
 40
-0.6
 41
-30.0
 62
     5
 63
     7
421
 16777215
 74
     1
 91
        4
 64
     7
 65
   257
 75
     1
175
     1
 42
1.0
 92
        8
 66
     7
 43
1.0
 76
     1
 77
     6
 78
     2
 67
     7
 79
     5
170
     0
171
     0
290
     0
174
     0
 93
        1
 44
-50.0
173
     0
291
     1
 45
0.0
1001
ACAD
1000
AcDbSavedByObjectVersion
1070
     0
  0
VISUALSTYLE
  5
39
102
{ACAD_REACTORS
330
2A
102
}
330
2A
100
AcDbVisualStyle
  2
Facepattern
 70
    15
 71
     2
 72
     2
 73
     0
 90
        0
 40
-0.6
 41
-30.0
 62
     5
 63
     7
421
 16777215
 74
     1
 91
        4
 64
     7
 65
   257
 75
     1
175
     1
 42
1.0
 92
        8
 66
     7
 43
1.0
 76
     1
 77
     6
 78
     2
 67
     7
 79
     5
170
     0
171
     0
290
     0
174
     0
 93
        1
 44
0.0
173
     0
291
     1
 45
0.0
1001
ACAD
1000
AcDbSavedByObjectVersion
1070
     0
  0
VISUALSTYLE
  5
2B
102
{ACAD_REACTORS
330
2A
102
}
330
2A
100
AcDbVisualStyle
  2
Flat
 70
     0
 71
     2
 72
     1
 73
     1
 90
        2
 40
-0.6
 41
30.0
 62
     5
 63
     7
421
 16777215
 74
     0
 91
        4
 64
     7
 65
   257
 75
     1
175
     1
 42
1.0
 92
        8
 66
     7
 43
1.0
 76
     1
 77
     6
 78
     2
 67
     7
 79
     5
170
     0
171
     0
290
     0
174
     0
 93
       13
 44
0.0
173
     0
291
     1
 45
0.0
1001
ACAD
1000
AcDbSavedByObjectVersion
1070
     0
  0
VISUALSTYLE
  5
2C
102
{ACAD_REACTORS
330
2A
102
}
330
2A
100
AcDbVisualStyle
  2
FlatWithEdges
 70
     1
 71
     2
 72
     1
 73
     1
 90
        2
 40
-0.6
 41
30.0
 62
     5
 63
     7
421
 16777215
 74
     1
 91
        4
 64
     7
 65
   257
 75
     1
175
     1
 42
1.0
 92
        0
 66
   257
 43
1.0
 76
     1
 77
     6
 78
     2
 67
     7
 79
     5
170
     0
171
     0
290
     0
174
     0
 93
       13
 44
0.0
173
     0
291
     1
 45
0.0
1001
ACAD
1000
AcDbSavedByObjectVersion
1070
     0
  0
VISUALSTYLE
  5
2D
102
{ACAD_REACTORS
330
2A
102
}
330
2A
100
AcDbVisualStyle
  2
Gouraud
 70
     2
 71
     2
 72
     2
 73
     1
 90
        2
 40
-0.6
 41
30.0
 62
     5
 63
     7
421
 16777215
 74
     0
 91
        4
 64
     7
 65
   257
 75
     1
175
     1
 42
1.0
 92
        0
 66
     7
 43
1.0
 76
     1
 77
     6
 78
     2
 67
     7
 79
     5
170
     0
171
     0
290
     0
174
     0
 93
       13
 44
0.0
173
     0
291
     1
 45
0.0
1001
ACAD
1000
AcDbSavedByObjectVersion
1070
     0
  0
VISUALSTYLE
  5
2E
102
{ACAD_REACTORS
330
2A
102
}
330
2A
100
AcDbVisualStyle
  2
GouraudWithEdges
 70
     3
 71
     2
 72
     2
 73
     1
 90
        2
 40
-0.6
 41
30.0
 62
     5
 63
     7
421
 16777215
 74
     1
 91
        4
 64
     7
 65
   257
 75
     1
175
     1
 42
1.0
 92
        0
 66
   257
 43
1.0
 76
     1
 77
     6
 78
     2
 67
     7
 79
     5
170
     0
171
     0
290
     0
174
     0
 93
       13
 44
0.0
173
     0
291
     1
 45
0.0
1001
ACAD
1000
AcDbSavedByObjectVersion
1070
     0
  0
VISUALSTYLE
  5
38
102
{ACAD_REACTORS
330
2A
102
}
330
2A
100
AcDbVisualStyle
  2
Linepattern
 70
    14
 71
     2
 72
     2
 73
     0
 90
        0
 40
-0.6
 41
-30.0
 62
     5
 63
     7
421
 16777215
 74
     1
 91
        4
 64
     7
 65
   257
 75
     7
175
     7
 42
1.0
 92
        8
 66
     7
 43
1.0
 76
     1
 77
     6
 78
     2
 67
     7
 79
     5
170
     0
171
     0
290
     0
174
     0
 93
        1
 44
0.0
173
     0
291
     1
 45
0.0
1001
ACAD
1000
AcDbSavedByObjectVersion
1070
     0
  0
VISUALSTYLE
  5
33
102
{ACAD_REACTORS
330
2A
102
}
330
2A
100
AcDbVisualStyle
  2
Realistic
 70
     8
 71
     2
 72
     2
 73
     0
 90
        0
 40
-0.6
 41
-30.0
 62
     5
 63
     7
421
 16777215
 74
     1
 91
        0
 64
     7
 65
   257
 75
     1
175
     1
 42
1.0
 92
        8
 66
     8
424
  7895160
 43
1.0
 76
     1
 77
     6
 78
     2
 67
     7
 79
     5
170
     0
171
     0
290
     0
174
     0
 93
       13
 44
0.0
173
     0
291
     0
 45
0.0
1001
ACAD
1000
AcDbSavedByObjectVersion
1070
     0
  0
VISUALSTYLE
  5
37
102
{ACAD_REACTORS
330
2A
102
}
330
2A
100
AcDbVisualStyle
  2
Thicken
 70
    13
 71
     2
 72
     2
 73
     0
 90
        0
 40
-0.6
 41
-30.0
 62
     5
 63
     7
421
 16777215
 74
     1
 91
        4
 64
     7
 65
   257
 75
     1
175
     1
 42
1.0
 92
       12
 66
     7
 43
1.0
 76
     1
 77
     6
 78
     2
 67
     7
 79
     5
170
     0
171
     0
290
     0
174
     0
 93
        1
 44
0.0
173
     0
291
     1
 45
0.0
1001
ACAD
1000
AcDbSavedByObjectVersion
1070
     0
  0
ENDSEC
  0
EOF
