  0
SECTION
  2
HEADER
  9
$ACADVER
  1
AC1018
  9
$ACADMAINTVER
 70
     0
  9
$DWGCODEPAGE
  3
ANSI_1252
  9
$INSBASE
 10
0.0
 20
0.0
 30
0.0
  9
$EXTMIN
 10
395.01700077118
 20
-53.55790891177797
 30
0.0
  9
$EXTMAX
 10
458.16229401996
 20
60.3130564738828
 30
0.0
  9
$LIMMIN
 10
0.0
 20
0.0
  9
$LIMMAX
 10
12.0
 20
9.0
  9
$ORTHOMODE
 70
     0
  9
$REGENMODE
 70
     1
  9
$FILLMODE
 70
     1
  9
$QTEXTMODE
 70
     0
  9
$MIRRTEXT
 70
     1
  9
$LTSCALE
 40
1.0
  9
$ATTMODE
 70
     1
  9
$TEXTSIZE
 40
0.2
  9
$TRACEWID
 40
0.05
  9
$TEXTSTYLE
  7
Standard
  9
$CLAYER
  8
0
  9
$CELTYPE
  6
ByLayer
  9
$CECOLOR
 62
   256
  9
$CELTSCALE
 40
1.0
  9
$DISPSILH
 70
     0
  9
$DIMSCALE
 40
1.0
  9
$DIMASZ
 40
0.18
  9
$DIMEXO
 40
0.0625
  9
$DIMDLI
 40
0.38
  9
$DIMRND
 40
0.0
  9
$DIMDLE
 40
0.0
  9
$DIMEXE
 40
0.18
  9
$DIMTP
 40
0.0
  9
$DIMTM
 40
0.0
  9
$DIMTXT
 40
0.18
  9
$DIMCEN
 40
0.09
  9
$DIMTSZ
 40
0.0
  9
$DIMTOL
 70
     0
  9
$DIMLIM
 70
     0
  9
$DIMTIH
 70
     1
  9
$DIMTOH
 70
     1
  9
$DIMSE1
 70
     0
  9
$DIMSE2
 70
     0
  9
$DIMTAD
 70
     0
  9
$DIMZIN
 70
     0
  9
$DIMBLK
  1

  9
$DIMASO
 70
     1
  9
$DIMSHO
 70
     1
  9
$DIMPOST
  1

  9
$DIMAPOST
  1

  9
$DIMALT
 70
     0
  9
$DIMALTD
 70
     2
  9
$DIMALTF
 40
25.4
  9
$DIMLFAC
 40
1.0
  9
$DIMTOFL
 70
     0
  9
$DIMTVP
 40
0.0
  9
$DIMTIX
 70
     0
  9
$DIMSOXD
 70
     0
  9
$DIMSAH
 70
     0
  9
$DIMBLK1
  1

  9
$DIMBLK2
  1

  9
$DIMSTYLE
  2
Standard
  9
$DIMCLRD
 70
     0
  9
$DIMCLRE
 70
     0
  9
$DIMCLRT
 70
     0
  9
$DIMTFAC
 40
1.0
  9
$DIMGAP
 40
0.09
  9
$DIMJUST
 70
     0
  9
$DIMSD1
 70
     0
  9
$DIMSD2
 70
     0
  9
$DIMTOLJ
 70
     1
  9
$DIMTZIN
 70
     0
  9
$DIMALTZ
 70
     0
  9
$DIMALTTZ
 70
     0
  9
$DIMUPT
 70
     0
  9
$DIMDEC
 70
     4
  9
$DIMTDEC
 70
     4
  9
$DIMALTU
 70
     2
  9
$DIMALTTD
 70
     2
  9
$DIMTXSTY
  7
Standard
  9
$DIMAUNIT
 70
     0
  9
$DIMADEC
 70
     0
  9
$DIMALTRND
 40
0.0
  9
$DIMAZIN
 70
     0
  9
$DIMDSEP
 70
    46
  9
$DIMATFIT
 70
     3
  9
$DIMFRAC
 70
     0
  9
$DIMLDRBLK
  1

  9
$DIMLUNIT
 70
     2
  9
$DIMLWD
 70
    -2
  9
$DIMLWE
 70
    -2
  9
$DIMTMOVE
 70
     0
  9
$LUNITS
 70
     2
  9
$LUPREC
 70
     4
  9
$SKETCHINC
 40
0.1
  9
$FILLETRAD
 40
0.5
  9
$AUNITS
 70
     0
  9
$AUPREC
 70
     0
  9
$MENU
  1
.
  9
$ELEVATION
 40
0.0
  9
$PELEVATION
 40
0.0
  9
$THICKNESS
 40
0.0
  9
$LIMCHECK
 70
     0
  9
$CHAMFERA
 40
0.5
  9
$CHAMFERB
 40
0.5
  9
$CHAMFERC
 40
1.0
  9
$CHAMFERD
 40
0.0
  9
$SKPOLY
 70
     0
  9
$TDCREATE
 40
2456391.360555232
  9
$TDUCREATE
 40
2456391.277221898
  9
$TDUPDATE
 40
2456391.360555243
  9
$TDUUPDATE
 40
2456391.27722191
  9
$TDINDWG
 40
0.0000000116
  9
$TDUSRTIMER
 40
0.0000000116
  9
$USRTIMER
 70
     1
  9
$ANGBASE
 50
0.0
  9
$ANGDIR
 70
     0
  9
$PDMODE
 70
     0
  9
$PDSIZE
 40
0.0
  9
$PLINEWID
 40
0.0
  9
$SPLFRAME
 70
     0
  9
$SPLINETYPE
 70
     6
  9
$SPLINESEGS
 70
     8
  9
$HANDSEED
  5
105
  9
$SURFTAB1
 70
     6
  9
$SURFTAB2
 70
     6
  9
$SURFTYPE
 70
     6
  9
$SURFU
 70
     6
  9
$SURFV
 70
     6
  9
$UCSBASE
  2

  9
$UCSNAME
  2

  9
$UCSORG
 10
0.0
 20
0.0
 30
0.0
  9
$UCSXDIR
 10
1.0
 20
0.0
 30
0.0
  9
$UCSYDIR
 10
0.0
 20
1.0
 30
0.0
  9
$UCSORTHOREF
  2

  9
$UCSORTHOVIEW
 70
     0
  9
$UCSORGTOP
 10
0.0
 20
0.0
 30
0.0
  9
$UCSORGBOTTOM
 10
0.0
 20
0.0
 30
0.0
  9
$UCSORGLEFT
 10
0.0
 20
0.0
 30
0.0
  9
$UCSORGRIGHT
 10
0.0
 20
0.0
 30
0.0
  9
$UCSORGFRONT
 10
0.0
 20
0.0
 30
0.0
  9
$UCSORGBACK
 10
0.0
 20
0.0
 30
0.0
  9
$PUCSBASE
  2

  9
$PUCSNAME
  2

  9
$PUCSORG
 10
0.0
 20
0.0
 30
0.0
  9
$PUCSXDIR
 10
1.0
 20
0.0
 30
0.0
  9
$PUCSYDIR
 10
0.0
 20
1.0
 30
0.0
  9
$PUCSORTHOREF
  2

  9
$PUCSORTHOVIEW
 70
     0
  9
$PUCSORGTOP
 10
0.0
 20
0.0
 30
0.0
  9
$PUCSORGBOTTOM
 10
0.0
 20
0.0
 30
0.0
  9
$PUCSORGLEFT
 10
0.0
 20
0.0
 30
0.0
  9
$PUCSORGRIGHT
 10
0.0
 20
0.0
 30
0.0
  9
$PUCSORGFRONT
 10
0.0
 20
0.0
 30
0.0
  9
$PUCSORGBACK
 10
0.0
 20
0.0
 30
0.0
  9
$USERI1
 70
     0
  9
$USERI2
 70
     0
  9
$USERI3
 70
     0
  9
$USERI4
 70
     0
  9
$USERI5
 70
     0
  9
$USERR1
 40
14.5
  9
$USERR2
 40
0.0
  9
$USERR3
 40
0.0
  9
$USERR4
 40
0.0
  9
$USERR5
 40
0.0
  9
$WORLDVIEW
 70
     1
  9
$SHADEDGE
 70
     3
  9
$SHADEDIF
 70
    70
  9
$TILEMODE
 70
     1
  9
$MAXACTVP
 70
    64
  9
$PINSBASE
 10
0.0
 20
0.0
 30
0.0
  9
$PLIMCHECK
 70
     0
  9
$PEXTMIN
 10
1.00000000000000E+20
 20
1.00000000000000E+20
 30
1.00000000000000E+20
  9
$PEXTMAX
 10
-1.00000000000000E+20
 20
-1.00000000000000E+20
 30
-1.00000000000000E+20
  9
$PLIMMIN
 10
0.0
 20
0.0
  9
$PLIMMAX
 10
12.0
 20
9.0
  9
$UNITMODE
 70
     0
  9
$VISRETAIN
 70
     1
  9
$PLINEGEN
 70
     0
  9
$PSLTSCALE
 70
     1
  9
$TREEDEPTH
 70
  3020
  9
$CMLSTYLE
  2
Standard
  9
$CMLJUST
 70
     0
  9
$CMLSCALE
 40
1.0
  9
$PROXYGRAPHICS
 70
     1
  9
$MEASUREMENT
 70
     1
  9
$CELWEIGHT
370
    -1
  9
$ENDCAPS
280
     0
  9
$JOINSTYLE
280
     0
  9
$LWDISPLAY
290
     0
  9
$INSUNITS
 70
     1
  9
$HYPERLINKBASE
  1

  9
$STYLESHEET
  1

  9
$XEDIT
290
     1
  9
$CEPSNTYPE
380
     0
  9
$PSTYLEMODE
290
     1
  9
$FINGERPRINTGUID
  2
{62D03275-9424-4058-8EB4-53F764612E1D}
  9
$VERSIONGUID
  2
{FAEB1C32-E019-11D5-929B-00C0DF256EC4}
  9
$EXTNAMES
290
     1
  9
$PSVPSCALE
 40
0.0
  9
$OLESTARTUP
290
     0
  9
$SORTENTS
280
   127
  9
$INDEXCTL
280
     0
  9
$HIDETEXT
280
     1
  9
$XCLIPFRAME
290
     0
  9
$HALOGAP
280
     0
  9
$OBSCOLOR
 70
   257
  9
$OBSLTYPE
280
     0
  9
$INTERSECTIONDISPLAY
280
     0
  9
$INTERSECTIONCOLOR
 70
   257
  9
$DIMASSOC
280
     2
  9
$PROJECTNAME
  1

  0
ENDSEC
  0
SECTION
  2
CLASSES
  0
CLASS
  1
ACDBDICTIONARYWDFLT
  2
AcDbDictionaryWithDefault
  3
ObjectDBX Classes
 90
        0
 91
        3
280
     0
281
     0
  0
CLASS
  1

  2
exOdDbCircle
  3

 90
        0
 91
        3
280
     0
281
     1
  0
ENDSEC
  0
SECTION
  2
TABLES
  0
TABLE
  2
VPORT
  5
8
330
0
100
AcDbSymbolTable
 70
     1
  0
VPORT
  5
29
330
8
100
AcDbSymbolTableRecord
100
AcDbViewportTableRecord
  2
*Active
 70
     0
 10
0.0
 20
0.0
 11
1.0
 21
1.0
 12
426.58964739557
 22
3.37757378105242
 13
0.0
 23
0.0
 14
0.5
 24
0.5
 15
0.5
 25
0.5
 16
0.0
 26
0.0
 36
1.0
 17
0.0
 27
0.0
 37
0.0
 40
125.2580619242269
 41
1.60267857142857
 42
50.0
 43
0.0
 44
0.0
 50
0.0
 51
0.0
 71
     0
 72
   100
 73
     1
 74
     3
 75
     0
 76
     0
 77
     0
 78
     0
281
     0
 65
     1
110
0.0
120
0.0
130
0.0
111
1.0
121
0.0
131
0.0
112
0.0
122
1.0
132
0.0
 79
     0
146
0.0
  0
ENDTAB
  0
TABLE
  2
LTYPE
  5
5
330
0
100
AcDbSymbolTable
 70
     8
  0
LTYPE
  5
14
330
5
100
AcDbSymbolTableRecord
100
AcDbLinetypeTableRecord
  2
ByBlock
 70
     0
  3

 72
    65
 73
     0
 40
0.0
  0
LTYPE
  5
15
330
5
100
AcDbSymbolTableRecord
100
AcDbLinetypeTableRecord
  2
ByLayer
 70
     0
  3

 72
    65
 73
     0
 40
0.0
  0
LTYPE
  5
16
330
5
100
AcDbSymbolTableRecord
100
AcDbLinetypeTableRecord
  2
Continuous
 70
     0
  3
Solid line
 72
    65
 73
     0
 40
0.0
  0
LTYPE
  5
2A
330
5
100
AcDbSymbolTableRecord
100
AcDbLinetypeTableRecord
  2
DASHED
 70
     0
  3
Dashed
 72
    65
 73
     2
 40
15.0
 49
7.0
 74
     0
 49
-8.0
 74
     0
  0
LTYPE
  5
2B
330
5
100
AcDbSymbolTableRecord
100
AcDbLinetypeTableRecord
  2
DOTTED
 70
     0
  3
Dotted
 72
    65
 73
     2
 40
1.0
 49
0.0
 74
     0
 49
-1.0
 74
     0
  0
LTYPE
  5
2C
330
5
100
AcDbSymbolTableRecord
100
AcDbLinetypeTableRecord
  2
DOT_CENTER
 70
     0
  3
Dot_Center
 72
    65
 73
     4
 40
14.0
 49
12.0
 74
     0
 49
-1.0
 74
     0
 49
0.0
 74
     0
 49
-1.0
 74
     0
  0
LTYPE
  5
2D
330
5
100
AcDbSymbolTableRecord
100
AcDbLinetypeTableRecord
  2
LONG_DASHED
 70
     0
  3
Long_Dashed
 72
    65
 73
     2
 40
15.0
 49
10.0
 74
     0
 49
-5.0
 74
     0
  0
LTYPE
  5
2E
330
5
100
AcDbSymbolTableRecord
100
AcDbLinetypeTableRecord
  2
DASH_CENTER
 70
     0
  3
Dash_Center
 72
    65
 73
     4
 40
14.0
 49
11.0
 74
     0
 49
-1.0
 74
     0
 49
1.0
 74
     0
 49
-1.0
 74
     0
  0
LTYPE
  5
2F
330
5
100
AcDbSymbolTableRecord
100
AcDbLinetypeTableRecord
  2
PHANTOM
 70
     0
  3
Phantom
 72
    65
 73
     6
 40
13.0
 49
10.0
 74
     0
 49
-1.0
 74
     0
 49
0.0
 74
     0
 49
-1.0
 74
     0
 49
0.0
 74
     0
 49
-1.0
 74
     0
  0
LTYPE
  5
30
330
5
100
AcDbSymbolTableRecord
100
AcDbLinetypeTableRecord
  2
CENTER_DASH_DASH
 70
     0
  3
Center_Dash_Dash
 72
    65
 73
     6
 40
14.0
 49
9.0
 74
     0
 49
-1.0
 74
     0
 49
1.0
 74
     0
 49
-1.0
 74
     0
 49
1.0
 74
     0
 49
-1.0
 74
     0
  0
ENDTAB
  0
TABLE
  2
LAYER
  5
2
330
0
100
AcDbSymbolTable
 70
     2
  0
LAYER
  5
10
330
2
100
AcDbSymbolTableRecord
100
AcDbLayerTableRecord
  2
0
 70
     0
 62
     7
  6
Continuous
370
    -3
390
F
  0
LAYER
  5
31
330
2
100
AcDbSymbolTableRecord
100
AcDbLayerTableRecord
  2
1
 70
     0
 62
     7
  6
Continuous
370
    -3
390
F
  0
ENDTAB
  0
TABLE
  2
STYLE
  5
3
330
0
100
AcDbSymbolTable
 70
     1
  0
STYLE
  5
11
330
3
100
AcDbSymbolTableRecord
100
AcDbTextStyleTableRecord
  2
Standard
 70
     0
 40
0.0
 41
1.0
 50
0.0
 71
     0
 42
0.2
  3
txt
  4

  0
ENDTAB
  0
TABLE
  2
VIEW
  5
6
330
0
100
AcDbSymbolTable
 70
     0
  0
ENDTAB
  0
TABLE
  2
UCS
  5
7
330
0
100
AcDbSymbolTable
 70
     0
  0
ENDTAB
  0
TABLE
  2
APPID
  5
9
330
0
100
AcDbSymbolTable
 70
     1
  0
APPID
  5
12
330
9
100
AcDbSymbolTableRecord
100
AcDbRegAppTableRecord
  2
ACAD
 70
     0
  0
ENDTAB
  0
TABLE
  2
DIMSTYLE
  5
A
330
0
100
AcDbSymbolTable
 70
     1
100
AcDbDimStyleTable
  0
DIMSTYLE
105
27
330
A
100
AcDbSymbolTableRecord
100
AcDbDimStyleTableRecord
  2
Standard
 70
     0
340
11
  0
ENDTAB
  0
TABLE
  2
BLOCK_RECORD
  5
1
330
0
100
AcDbSymbolTable
 70
     1
  0
BLOCK_RECORD
  5
1F
330
1
100
AcDbSymbolTableRecord
100
AcDbBlockTableRecord
  2
*Model_Space
340
22
  0
BLOCK_RECORD
  5
1B
330
1
100
AcDbSymbolTableRecord
100
AcDbBlockTableRecord
  2
*Paper_Space
340
1E
  0
BLOCK_RECORD
  5
23
330
1
100
AcDbSymbolTableRecord
100
AcDbBlockTableRecord
  2
*Paper_Space0
340
26
  0
ENDTAB
  0
ENDSEC
  0
SECTION
  2
BLOCKS
  0
BLOCK
  5
20
330
1F
100
AcDbEntity
  8
0
100
AcDbBlockBegin
  2
*Model_Space
 70
     0
 71
     0
 10
0.0
 20
0.0
 30
0.0
  3
*Model_Space
  1

  0
ENDBLK
  5
21
330
1F
100
AcDbEntity
  8
0
100
AcDbBlockEnd
  0
BLOCK
  5
1C
330
1B
100
AcDbEntity
 67
     1
  8
0
100
AcDbBlockBegin
  2
*Paper_Space
 70
     0
 71
     0
 10
0.0
 20
0.0
 30
0.0
  3
*Paper_Space
  1

  0
ENDBLK
  5
1D
330
1B
100
AcDbEntity
 67
     1
  8
0
100
AcDbBlockEnd
  0
BLOCK
  5
24
330
23
100
AcDbEntity
  8
0
100
AcDbBlockBegin
  2
*Paper_Space0
 70
     0
 71
     0
 10
0.0
 20
0.0
 30
0.0
  3
*Paper_Space0
  1

  0
ENDBLK
  5
25
330
23
100
AcDbEntity
  8
0
100
AcDbBlockEnd
  0
ENDSEC
  0
SECTION
  2
ENTITIES
  0
LINE
  5
32
330
1F
100
AcDbEntity
  8
1
  6
DOT_CENTER
 62
     2
100
AcDbLine
 10
422.0609570818086
 20
8.00673052588974
 30
0.0
 11
436.6118933241157
 21
15.06298349595045
 31
0.0
  0
LINE
  5
33
330
1F
100
AcDbEntity
  8
1
  6
DOT_CENTER
 62
     2
100
AcDbLine
 10
429.9440647455086
 20
5.2723908318294
 30
0.0
 11
424.795296775869
 21
15.88983818958974
 31
0.0
  0
LINE
  5
34
330
1F
100
AcDbEntity
  8
1
  6
DOT_CENTER
 62
     2
100
AcDbLine
 10
432.3154989127422
 20
-22.30674621033487
 30
0.0
 11
442.9329462705027
 21
-17.15797824069517
 31
0.0
  0
LINE
  5
35
330
1F
100
AcDbEntity
  8
1
  6
DOT_CENTER
 62
     2
100
AcDbLine
 10
440.1986065764422
 20
-25.04108590439523
 30
0.0
 11
435.0498386068027
 21
-14.42363854663483
 31
0.0
  0
LINE
  5
36
330
1F
100
AcDbEntity
  8
1
  6
DOT_CENTER
 62
     2
100
AcDbLine
 10
454.6023833818517
 20
-4.55294997796329
 30
0.0
 11
443.9849360240912
 21
-9.70171794760296
 31
0.0
  0
LINE
  5
37
330
1F
100
AcDbEntity
  8
1
  6
DOT_CENTER
 62
     2
100
AcDbLine
 10
451.8680436877912
 20
-12.43605764166333
 30
0.0
 11
446.7192757181517
 21
-1.81861028390296
 31
0.0
  0
LINE
  5
38
330
1F
100
AcDbEntity
  8
1
  6
Continuous
 62
     7
100
AcDbLine
 10
426.0879021480043
 20
14.37018347129396
 30
0.0
 11
424.193367667712
 21
13.72929416495163
 31
0.0
  0
LINE
  5
39
330
1F
100
AcDbEntity
  8
1
  6
Continuous
 62
     7
100
AcDbLine
 10
422.939722493762
 20
11.19387037831712
 30
0.0
 11
424.2215011064468
 21
7.40480141773276
 31
0.0
  0
LINE
  5
3A
330
1F
100
AcDbEntity
  8
1
  6
Continuous
 62
     7
100
AcDbLine
 10
428.6514593733734
 20
6.79204555012512
 30
0.0
 11
426.7569248930813
 21
6.15115624378279
 31
0.0
  0
LINE
  5
3B
330
1F
100
AcDbEntity
  8
1
  6
Continuous
 62
     7
100
AcDbLine
 10
433.8351536310381
 20
-21.01414083819967
 30
0.0
 11
434.7964875905516
 21
-23.85594255863799
 31
0.0
  0
LINE
  5
3C
330
1F
100
AcDbEntity
  8
1
  6
Continuous
 62
     7
100
AcDbLine
 10
438.9060012043071
 20
-23.52143118609953
 30
0.0
 11
436.0641994838688
 21
-24.48276514561294
 31
0.0
  0
LINE
  5
3D
330
1F
100
AcDbEntity
  8
1
  6
Continuous
 62
     7
100
AcDbLine
 10
443.988292699408
 20
10.66741767409309
 30
0.0
 11
452.7907354772415
 21
-5.1855664615066
 31
0.0
  0
LINE
  5
3E
330
1F
100
AcDbEntity
  8
1
  6
Continuous
 62
     7
100
AcDbLine
 10
437.7030817032926
 20
-15.73313964599961
 30
0.0
 11
442.2933225137044
 21
-15.82365281586294
 31
0.0
  0
LINE
  5
3F
330
1F
100
AcDbEntity
  8
1
  6
DASHED
 62
     2
100
AcDbLine
 10
439.8069603390558
 20
9.68313045368109
 30
0.0
 11
444.7322784430098
 21
9.32751754771755
 31
0.0
  0
LINE
  5
40
330
1F
100
AcDbEntity
  8
1
  6
Continuous
 62
     7
100
AcDbLine
 10
433.5742884593674
 20
10.63443716536193
 30
0.0
 11
438.3468616296925
 21
10.2898525967712
 31
0.0
  0
LINE
  5
41
330
1F
100
AcDbEntity
  8
1
  6
Continuous
 62
     7
100
AcDbLine
 10
440.4162869557052
 20
8.88718413271511
 30
0.0
 11
446.0039638588123
 21
-2.63535207803312
 31
0.0
  0
LINE
  5
42
330
1F
100
AcDbEntity
  8
1
  6
Continuous
 62
     7
100
AcDbLine
 10
446.5539561463959
 20
-11.97439744721231
 30
0.0
 11
446.1512995140702
 21
-13.13525744972878
 31
0.0
  0
LINE
  5
43
330
1F
100
AcDbEntity
  8
1
  6
Continuous
 62
     7
100
AcDbLine
 10
427.6577349366145
 20
14.57072912765347
 30
0.0
 11
439.1747603018914
 21
13.73918834759411
 31
0.0
  0
LINE
  5
44
330
1F
100
AcDbEntity
  8
1
  6
Continuous
 62
     7
100
AcDbLine
 10
439.3695676660766
 20
-23.33149692306091
 30
0.0
 11
447.3970532890792
 21
-19.43869110450902
 31
0.0
  0
LINE
  5
45
330
1F
100
AcDbEntity
  8
1
  6
Continuous
 62
     7
100
AcDbLine
 10
453.0727775916671
 20
-8.43816117616461
 30
0.0
 11
450.4477125104413
 21
-16.00622987826233
 31
0.0
  0
LINE
  5
46
330
1F
100
AcDbEntity
  8
1
  6
DOT_CENTER
 62
     2
100
AcDbLine
 10
442.9313282116502
 20
2.90228407553434
 30
0.0
 11
432.3130503937796
 21
8.04933917359909
 31
0.0
  0
LINE
  5
47
330
1F
100
AcDbEntity
  8
1
  6
DOT_CENTER
 62
     2
100
AcDbLine
 10
435.0486617536826
 20
0.16667271563136
 30
0.0
 11
440.1957168517474
 21
10.78495053350213
 31
0.0
  0
LINE
  5
48
330
1F
100
AcDbEntity
  8
1
  6
DOT_CENTER
 62
     2
100
AcDbLine
 10
436.6154732269035
 20
-29.31969695290428
 30
0.0
 11
422.063398860553
 21
-22.26579142891401
 31
0.0
  0
LINE
  5
49
330
1F
100
AcDbEntity
  8
1
  6
DOT_CENTER
 62
     2
100
AcDbLine
 10
424.799010220456
 20
-30.14845788688174
 30
0.0
 11
429.9460653185208
 21
-19.53018006901101
 31
0.0
  0
LINE
  5
4A
330
1F
100
AcDbEntity
  8
1
  6
DASHED
 62
     2
100
AcDbLine
 10
444.174574276552
 20
-15.39533778639429
 30
0.0
 11
440.6220523222166
 21
-22.72412373224549
 31
0.0
  0
LINE
  5
4B
330
1F
100
AcDbEntity
  8
1
  6
Continuous
 62
     7
100
AcDbLine
 10
440.6220523222166
 20
-22.72412373224549
 30
0.0
 11
440.418870530217
 21
-23.14328394597519
 31
0.0
  0
LINE
  5
4C
330
1F
100
AcDbEntity
  8
1
  6
Continuous
 62
     7
100
AcDbLine
 10
446.9018807016553
 20
-19.67881744294652
 30
0.0
 11
443.9911634143754
 21
-24.92294122890471
 31
0.0
  0
LINE
  5
4D
330
1F
100
AcDbEntity
  8
1
  6
DASHED
 62
     2
100
AcDbLine
 10
446.8998559298607
 20
5.42376351272839
 30
0.0
 11
440.6195363639063
 21
8.4680567016876
 31
0.0
  0
LINE
  5
4E
330
1F
100
AcDbEntity
  8
1
  6
Continuous
 62
     7
100
AcDbLine
 10
440.6195363639063
 20
8.4680567016876
 30
0.0
 11
439.366953742737
 21
9.07522783401447
 31
0.0
  0
LINE
  5
4F
330
1F
100
AcDbEntity
  8
1
  6
DASHED
 62
     2
100
AcDbLine
 10
452.7910486772996
 20
-9.06853729119763
 30
0.0
 11
446.9018807016553
 21
-19.67881744294652
 31
0.0
  0
LINE
  5
50
330
1F
100
AcDbEntity
  8
1
  6
Continuous
 62
     7
100
AcDbLine
 10
442.2919197162975
 20
1.5678554840822
 30
0.0
 11
437.7016935671815
 21
1.47660181862608
 31
0.0
  0
LINE
  5
51
330
1F
100
AcDbEntity
  8
1
  6
Continuous
 62
     7
100
AcDbLine
 10
438.3496715093404
 20
-24.54628623107774
 30
0.0
 11
433.5771539894329
 21
-24.89164070577658
 31
0.0
  0
LINE
  5
52
330
1F
100
AcDbEntity
  8
1
  6
Continuous
 62
     7
100
AcDbLine
 10
446.0046885472773
 20
-11.61984648218828
 30
0.0
 11
444.174574276552
 21
-15.39533778639429
 31
0.0
  0
LINE
  5
53
330
1F
100
AcDbEntity
  8
1
  6
DASHED
 62
     2
100
AcDbLine
 10
446.1503303578896
 20
-1.11991747895803
 30
0.0
 11
446.55317425469
 21
-2.28071250987824
 31
0.0
  0
LINE
  5
54
330
1F
100
AcDbEntity
  8
1
  6
Continuous
 62
     7
100
AcDbLine
 10
439.1781266169506
 20
-27.99548838056219
 30
0.0
 11
427.6612355455336
 21
-28.82888707413258
 31
0.0
  0
LINE
  5
55
330
1F
100
AcDbEntity
  8
1
  6
Continuous
 62
     7
100
AcDbLine
 10
447.3950672479764
 20
5.18371705856265
 30
0.0
 11
446.8998559298607
 21
5.42376351272839
 31
0.0
  0
LINE
  5
56
330
1F
100
AcDbEntity
  8
1
  6
Continuous
 62
     7
100
AcDbLine
 10
450.4462801536322
 20
1.75174800874191
 30
0.0
 11
453.0725660800974
 21
-5.81589711988255
 31
0.0
  0
LINE
  5
57
330
1F
100
AcDbEntity
  8
1
  6
Continuous
 62
     7
100
AcDbLine
 10
444.734932995864
 20
-23.58292110032588
 30
0.0
 11
439.8096723234046
 21
-23.93932855303751
 31
0.0
  0
LINE
  5
58
330
1F
100
AcDbEntity
  8
1
  6
Continuous
 62
     7
100
AcDbLine
 10
436.0613998811691
 20
10.22596282022261
 30
0.0
 11
438.9033566468404
 21
9.26508731212851
 31
0.0
  0
LINE
  5
59
330
1F
100
AcDbEntity
  8
1
  6
Continuous
 62
     7
100
AcDbLine
 10
434.7937891232473
 20
9.59893573436341
 30
0.0
 11
433.8329136151531
 21
6.75697896869212
 31
0.0
  0
LINE
  5
5A
330
1F
100
AcDbEntity
  8
1
  6
Continuous
 62
     7
100
AcDbLine
 10
426.7590672698331
 20
-20.40945961832193
 30
0.0
 11
428.6537051136138
 21
-21.05004329038462
 31
0.0
  0
LINE
  5
5B
330
1F
100
AcDbEntity
  8
1
  6
Continuous
 62
     7
100
AcDbLine
 10
422.9426784098641
 20
-25.45278947760195
 30
0.0
 11
424.2238457539895
 21
-21.66351379004018
 31
0.0
  0
LINE
  5
5C
330
1F
100
AcDbEntity
  8
1
  6
Continuous
 62
     7
100
AcDbLine
 10
424.1967325815822
 20
-27.98801099344547
 30
0.0
 11
426.0913704253632
 21
-28.6285946655081
 31
0.0
  0
LINE
  5
5D
330
1F
100
AcDbEntity
  8
1
  6
Continuous
 62
     7
100
AcDbLine
 10
435.1242225916225
 20
-40.73236222551485
 30
0.0
 11
439.1242225916225
 21
-40.73236222551485
 31
0.0
  0
LINE
  5
5E
330
1F
100
AcDbEntity
  8
1
  6
Continuous
 62
     7
100
AcDbLine
 10
439.1242225916225
 20
-36.73236222551491
 30
0.0
 11
439.1242225916224
 21
-27.99938904646309
 31
0.0
  0
LINE
  5
5F
330
1F
100
AcDbEntity
  8
1
  6
Continuous
 62
     7
100
AcDbLine
 10
439.1242225916225
 20
-40.73236222551485
 30
0.0
 11
439.1242225916225
 21
-36.73236222551491
 31
0.0
  0
LINE
  5
60
330
1F
100
AcDbEntity
  8
1
  6
Continuous
 62
     7
100
AcDbLine
 10
410.6242225916224
 20
-40.73236222551485
 30
0.0
 11
435.1242225916225
 21
-40.73236222551485
 31
0.0
  0
LINE
  5
61
330
1F
100
AcDbEntity
  8
1
  6
Continuous
 62
     7
100
AcDbLine
 10
436.1242225916226
 20
-28.21647854268281
 30
0.0
 11
436.1242225916225
 21
-36.73236222551485
 31
0.0
  0
LINE
  5
62
330
1F
100
AcDbEntity
  8
1
  6
Continuous
 62
     7
100
AcDbLine
 10
436.1242225916225
 20
-14.73236222551491
 30
0.0
 11
414.1242225916224
 21
-14.73236222551491
 31
0.0
  0
LINE
  5
63
330
1F
100
AcDbEntity
  8
1
  6
Continuous
 62
     7
100
AcDbLine
 10
436.1242225916225
 20
-14.73236222551491
 30
0.0
 11
436.1242225916225
 21
-16.02426298196729
 31
0.0
  0
LINE
  5
64
330
1F
100
AcDbEntity
  8
1
  6
Continuous
 62
     7
100
AcDbLine
 10
414.1242225916224
 20
-37.73236222551485
 30
0.0
 11
414.1242225916224
 21
-14.73236222551491
 31
0.0
  0
LINE
  5
65
330
1F
100
AcDbEntity
  8
1
  6
Continuous
 62
     2
100
AcDbLine
 10
414.1242225916224
 20
-24.48236222551491
 30
0.0
 11
409.6242225916224
 21
-24.48236222551491
 31
0.0
  0
LINE
  5
66
330
1F
100
AcDbEntity
  8
1
  6
Continuous
 62
     2
100
AcDbLine
 10
414.1242225916224
 20
-30.98236222551491
 30
0.0
 11
409.6242225916224
 21
-30.98236222551491
 31
0.0
  0
LINE
  5
67
330
1F
100
AcDbEntity
  8
1
  6
Continuous
 62
     7
100
AcDbLine
 10
414.1242225916224
 20
-31.73236222551491
 30
0.0
 11
410.1242225916224
 21
-31.73236222551491
 31
0.0
  0
LINE
  5
68
330
1F
100
AcDbEntity
  8
1
  6
Continuous
 62
     7
100
AcDbLine
 10
410.1242225916224
 20
-23.73236222551491
 30
0.0
 11
414.1242225916224
 21
-23.73236222551491
 31
0.0
  0
LINE
  5
69
330
1F
100
AcDbEntity
  8
1
  6
Continuous
 62
     7
100
AcDbLine
 10
409.6242225916224
 20
-31.23236222551491
 30
0.0
 11
410.1242225916224
 21
-31.73236222551491
 31
0.0
  0
LINE
  5
6A
330
1F
100
AcDbEntity
  8
1
  6
Continuous
 62
     7
100
AcDbLine
 10
410.6242225916224
 20
-37.73236222551485
 30
0.0
 11
435.1242225916225
 21
-37.73236222551485
 31
0.0
  0
LINE
  5
6B
330
1F
100
AcDbEntity
  8
1
  6
Continuous
 62
     7
100
AcDbLine
 10
409.6242225916224
 20
-14.73236222551468
 30
0.0
 11
409.6242225916224
 21
-36.73236222551485
 31
0.0
  0
LINE
  5
6C
330
1F
100
AcDbEntity
  8
1
  6
Continuous
 62
     7
100
AcDbLine
 10
409.6242225916224
 20
-24.23236222551491
 30
0.0
 11
410.1242225916224
 21
-23.73236222551491
 31
0.0
  0
LINE
  5
6D
330
1F
100
AcDbEntity
  8
1
  6
Continuous
 62
     7
100
AcDbLine
 10
410.1242225916224
 20
-23.73236222551491
 30
0.0
 11
410.1242225916224
 21
-31.73236222551491
 31
0.0
  0
LINE
  5
6E
330
1F
100
AcDbEntity
  8
1
  6
Continuous
 62
     7
100
AcDbLine
 10
404.9045526775123
 20
-30.95203213962508
 30
0.0
 11
405.6242225916225
 21
-30.23236222551491
 31
0.0
  0
LINE
  5
6F
330
1F
100
AcDbEntity
  8
1
  6
Continuous
 62
     7
100
AcDbLine
 10
404.6242225916224
 20
-30.67170205373514
 30
0.0
 11
404.9045526775123
 21
-30.95203213962508
 31
0.0
  0
LINE
  5
70
330
1F
100
AcDbEntity
  8
1
  6
Continuous
 62
     7
100
AcDbLine
 10
404.9045526775123
 20
-24.5126923114048
 30
0.0
 11
404.6242225916224
 21
-24.79302239729474
 31
0.0
  0
LINE
  5
71
330
1F
100
AcDbEntity
  8
1
  6
Continuous
 62
     7
100
AcDbLine
 10
405.6242225916225
 20
-25.23236222551491
 30
0.0
 11
404.9045526775123
 21
-24.5126923114048
 31
0.0
  0
LINE
  5
72
330
1F
100
AcDbEntity
  8
1
  6
Continuous
 62
     7
100
AcDbLine
 10
405.6242225916225
 20
-25.23236222551491
 30
0.0
 11
405.6242225916225
 21
-30.23236222551491
 31
0.0
  0
LINE
  5
73
330
1F
100
AcDbEntity
  8
1
  6
Continuous
 62
     7
100
AcDbLine
 10
405.6242225916225
 20
-32.73236222551491
 30
0.0
 11
406.6242225916224
 21
-32.73236222551491
 31
0.0
  0
LINE
  5
74
330
1F
100
AcDbEntity
  8
1
  6
Continuous
 62
     7
100
AcDbLine
 10
405.6242225916225
 20
-22.73236222551491
 30
0.0
 11
405.6242225916225
 21
-32.73236222551491
 31
0.0
  0
LINE
  5
75
330
1F
100
AcDbEntity
  8
1
  6
Continuous
 62
     7
100
AcDbLine
 10
406.6242225916224
 20
-22.73236222551491
 30
0.0
 11
405.6242225916225
 21
-22.73236222551491
 31
0.0
  0
LINE
  5
76
330
1F
100
AcDbEntity
  8
1
  6
Continuous
 62
     7
100
AcDbLine
 10
404.6242225916224
 20
-14.73236222551457
 30
0.0
 11
404.6242225916224
 21
-24.79302239729474
 31
0.0
  0
LINE
  5
77
330
1F
100
AcDbEntity
  8
1
  6
Continuous
 62
     7
100
AcDbLine
 10
404.6242225916224
 20
-40.73236222551485
 30
0.0
 11
410.6242225916224
 21
-40.73236222551485
 31
0.0
  0
LINE
  5
78
330
1F
100
AcDbEntity
  8
1
  6
PHANTOM
 62
     2
100
AcDbLine
 10
397.1242225916222
 20
-8.95663161841155
 30
0.0
 11
397.1242225916222
 21
-10.73236222551502
 31
0.0
  0
LINE
  5
79
330
1F
100
AcDbEntity
  8
1
  6
PHANTOM
 62
     2
100
AcDbLine
 10
397.1242225916222
 20
-50.73236222551513
 30
0.0
 11
397.1242225916222
 21
-53.55790891177797
 31
0.0
  0
LINE
  5
7A
330
1F
100
AcDbEntity
  8
1
  6
Continuous
 62
     7
100
AcDbLine
 10
406.6242225916224
 20
-14.73236222551462
 30
0.0
 11
406.6242225916224
 21
-36.73236222551485
 31
0.0
  0
LINE
  5
7B
330
1F
100
AcDbEntity
  8
1
  6
PHANTOM
 62
     2
100
AcDbLine
 10
397.1242225916222
 20
-10.73236222551502
 30
0.0
 11
397.1242225916222
 21
-50.73236222551513
 31
0.0
  0
LINE
  5
7C
330
1F
100
AcDbEntity
  8
1
  6
DOT_CENTER
 62
     2
100
AcDbLine
 10
414.1242225916224
 20
-23.20983274913833
 30
0.0
 11
411.7872143327519
 21
-22.92288421624652
 31
0.0
  0
LINE
  5
7D
330
1F
100
AcDbEntity
  8
1
  6
DOT_CENTER
 62
     2
100
AcDbLine
 10
403.5506471720434
 20
-27.73236222551491
 30
0.0
 11
417.4146326656203
 21
-27.73236222551491
 31
0.0
  0
LINE
  5
7E
330
1F
100
AcDbEntity
  8
1
  6
Continuous
 62
     7
100
AcDbLine
 10
406.6242225916224
 20
-14.73236222551462
 30
0.0
 11
404.6242225916224
 21
-14.73236222551457
 31
0.0
  0
LINE
  5
7F
330
1F
100
AcDbEntity
  8
1
  6
Continuous
 62
     7
100
AcDbLine
 10
409.6242225916224
 20
-14.73236222551468
 30
0.0
 11
406.6242225916224
 21
-14.73236222551462
 31
0.0
  0
LINE
  5
80
330
1F
100
AcDbEntity
  8
1
  6
Continuous
 62
     7
100
AcDbLine
 10
414.1242225916224
 20
-14.73236222551491
 30
0.0
 11
409.6242225916224
 21
-14.73236222551468
 31
0.0
  0
LINE
  5
81
330
1F
100
AcDbEntity
  8
1
  6
Continuous
 62
     7
100
AcDbLine
 10
397.1242225916222
 20
-10.73236222551502
 30
0.0
 11
442.1242225916225
 21
-10.73236222551502
 31
0.0
  0
LINE
  5
82
330
1F
100
AcDbEntity
  8
1
  6
Continuous
 62
     7
100
AcDbLine
 10
442.1242225916225
 20
-14.73236222551491
 30
0.0
 11
442.1242225916225
 21
-15.8203184003925
 31
0.0
  0
LINE
  5
83
330
1F
100
AcDbEntity
  8
1
  6
Continuous
 62
     7
100
AcDbLine
 10
442.1242225916225
 20
-10.73236222551502
 30
0.0
 11
442.1242225916225
 21
-14.73236222551491
 31
0.0
  0
LINE
  5
84
330
1F
100
AcDbEntity
  8
1
  6
DASHED
 62
     2
100
AcDbLine
 10
429.1430799118475
 20
-28.0771411193815
 30
0.0
 11
423.2880853304164
 21
-27.3582381806116
 31
0.0
  0
LINE
  5
85
330
1F
100
AcDbEntity
  8
1
  6
DASHED
 62
     2
100
AcDbLine
 10
432.050987992869
 20
-24.90790294714968
 30
0.0
 11
431.9291186494638
 21
-25.90044909879116
 31
0.0
  0
LINE
  5
86
330
1F
100
AcDbEntity
  8
1
  6
DOT_CENTER
 62
     2
100
AcDbLine
 10
432.8067501278382
 20
-25.50445378176839
 30
0.0
 11
414.1242225916224
 21
-23.21052784167766
 31
0.0
  0
LINE
  5
87
330
1F
100
AcDbEntity
  8
1
  6
Continuous
 62
     7
100
AcDbLine
 10
414.1242225916224
 20
-20.1879983653012
 30
0.0
 11
424.3151262642878
 21
-21.43928399795318
 31
0.0
  0
LINE
  5
88
330
1F
100
AcDbEntity
  8
1
  6
Continuous
 62
     7
100
AcDbLine
 10
442.1242225916225
 20
-14.73236222551491
 30
0.0
 11
439.1242225916229
 21
-14.73236222551491
 31
0.0
  0
LINE
  5
89
330
1F
100
AcDbEntity
  8
1
  6
Continuous
 62
     7
100
AcDbLine
 10
439.1242225916225
 20
-40.73236222551485
 30
0.0
 11
442.1242225916225
 21
-40.73236222551491
 31
0.0
  0
LINE
  5
8A
330
1F
100
AcDbEntity
  8
1
  6
Continuous
 62
     7
100
AcDbLine
 10
439.1242225916229
 20
-14.73236222551491
 30
0.0
 11
439.1242225916225
 21
-15.76116256940123
 31
0.0
  0
LINE
  5
8B
330
1F
100
AcDbEntity
  8
1
  6
Continuous
 62
     7
100
AcDbLine
 10
439.1242225916229
 20
-14.73236222551491
 30
0.0
 11
436.1242225916225
 21
-14.73236222551491
 31
0.0
  0
LINE
  5
8C
330
1F
100
AcDbEntity
  8
1
  6
Continuous
 62
     7
100
AcDbLine
 10
442.1242225916222
 20
-50.73236222551513
 30
0.0
 11
397.1242225916222
 21
-50.73236222551513
 31
0.0
  0
LINE
  5
8D
330
1F
100
AcDbEntity
  8
1
  6
Continuous
 62
     7
100
AcDbLine
 10
442.1242225916225
 20
-40.73236222551491
 30
0.0
 11
442.1242225916222
 21
-50.73236222551513
 31
0.0
  0
LINE
  5
8E
330
1F
100
AcDbEntity
  8
1
  6
Continuous
 62
     7
100
AcDbLine
 10
404.6242225916224
 20
-30.67170205373514
 30
0.0
 11
404.6242225916224
 21
-40.73236222551485
 31
0.0
  0
LINE
  5
8F
330
1F
100
AcDbEntity
  8
1
  6
Continuous
 62
     7
100
AcDbLine
 10
404.6242225916224
 20
-24.79302239729474
 30
0.0
 11
404.6242225916224
 21
-30.67170205373514
 31
0.0
  0
LINE
  5
90
330
1F
100
AcDbEntity
  8
1
  6
Continuous
 62
     7
100
AcDbLine
 10
442.1242225916225
 20
-26.96909902628578
 30
0.0
 11
442.1242225916225
 21
-40.73236222551491
 31
0.0
  0
LINE
  5
91
330
1F
100
AcDbEntity
  8
1
  6
Continuous
 62
     7
100
AcDbLine
 10
423.2880853304164
 20
-27.3582381806116
 30
0.0
 11
414.1242225916224
 21
-26.2330573180543
 31
0.0
  0
LINE
  5
92
330
1F
100
AcDbEntity
  8
1
  6
DASHED
 62
     2
100
AcDbLine
 10
424.3151262642878
 20
-21.43928399795318
 30
0.0
 11
429.8742959722785
 21
-22.12186420953349
 31
0.0
  0
LINE
  5
93
330
1F
100
AcDbEntity
  8
1
  6
Continuous
 62
     7
100
AcDbLine
 10
424.3115467369676
 20
7.18324073071234
 30
0.0
 11
413.122189302715
 21
5.80936039136205
 31
0.0
  0
LINE
  5
94
330
1F
100
AcDbEntity
  8
1
  6
DASHED
 62
     2
100
AcDbLine
 10
429.8648088350123
 20
7.86509557899946
 30
0.0
 11
424.3115467369676
 21
7.18324073071234
 31
0.0
  0
LINE
  5
95
330
1F
100
AcDbEntity
  8
1
  6
DASHED
 62
     2
100
AcDbLine
 10
423.2874213781817
 20
13.1025529009775
 30
0.0
 11
429.1335927745814
 21
13.82037248884755
 31
0.0
  0
LINE
  5
96
330
1F
100
AcDbEntity
  8
1
  6
Continuous
 62
     7
100
AcDbLine
 10
409.122189302715
 20
26.47581162456663
 30
0.0
 11
409.1221893027148
 21
0.47581162456663
 31
0.0
  0
LINE
  5
97
330
1F
100
AcDbEntity
  8
1
  6
Continuous
 62
     7
100
AcDbLine
 10
432.6221893027143
 20
0.47581162456663
 30
0.0
 11
409.1221893027148
 21
0.47581162456663
 31
0.0
  0
LINE
  5
98
330
1F
100
AcDbEntity
  8
1
  6
Continuous
 62
     7
100
AcDbLine
 10
413.1221893027151
 20
4.32581162456662
 30
0.0
 11
413.1221893027151
 21
13.47581162456662
 31
0.0
  0
LINE
  5
99
330
1F
100
AcDbEntity
  8
1
  6
Continuous
 62
     7
100
AcDbLine
 10
440.622189302715
 20
1.47581162456655
 30
0.0
 11
435.6221893027143
 21
1.47581162456656
 31
0.0
  0
LINE
  5
9A
330
1F
100
AcDbEntity
  8
1
  6
Continuous
 62
     7
100
AcDbLine
 10
410.6221893027151
 20
1.47581162456662
 30
0.0
 11
410.6221893027151
 21
4.32581162456662
 31
0.0
  0
LINE
  5
9B
330
1F
100
AcDbEntity
  8
1
  6
Continuous
 62
     7
100
AcDbLine
 10
410.6221893027151
 20
4.32581162456662
 30
0.0
 11
413.1221893027151
 21
4.32581162456662
 31
0.0
  0
LINE
  5
9C
330
1F
100
AcDbEntity
  8
1
  6
Continuous
 62
     7
100
AcDbLine
 10
410.6221893027151
 20
22.62581162456663
 30
0.0
 11
410.6221893027151
 21
4.32581162456662
 31
0.0
  0
LINE
  5
9D
330
1F
100
AcDbEntity
  8
1
  6
Continuous
 62
     7
100
AcDbLine
 10
413.1221893027151
 20
13.47581162456662
 30
0.0
 11
413.1221893027151
 21
22.62581162456663
 31
0.0
  0
LINE
  5
9E
330
1F
100
AcDbEntity
  8
1
  6
Continuous
 62
     7
100
AcDbLine
 10
410.6221893027151
 20
22.62581162456663
 30
0.0
 11
410.6221893027151
 21
25.47581162456671
 31
0.0
  0
LINE
  5
9F
330
1F
100
AcDbEntity
  8
1
  6
Continuous
 62
     7
100
AcDbLine
 10
410.6221893027151
 20
22.62581162456663
 30
0.0
 11
413.1221893027151
 21
22.62581162456663
 31
0.0
  0
LINE
  5
A0
330
1F
100
AcDbEntity
  8
1
  6
Continuous
 62
     7
100
AcDbLine
 10
410.6221893027151
 20
25.47581162456671
 30
0.0
 11
432.622189302715
 21
25.47581162456665
 31
0.0
  0
LINE
  5
A1
330
1F
100
AcDbEntity
  8
1
  6
Continuous
 62
     7
100
AcDbLine
 10
435.622189302715
 20
26.47581162456663
 30
0.0
 11
432.622189302715
 21
26.47581162456672
 31
0.0
  0
LINE
  5
A2
330
1F
100
AcDbEntity
  8
1
  6
Continuous
 62
     7
100
AcDbLine
 10
435.622189302715
 20
26.47581162456663
 30
0.0
 11
440.622189302715
 21
26.47581162456663
 31
0.0
  0
LINE
  5
A3
330
1F
100
AcDbEntity
  8
1
  6
DASHED
 62
     2
100
AcDbLine
 10
431.9196315121976
 20
11.64368046825705
 30
0.0
 11
432.0415008556027
 21
10.65113431661565
 31
0.0
  0
LINE
  5
A4
330
1F
100
AcDbEntity
  8
1
  6
Continuous
 62
     7
100
AcDbLine
 10
413.122189302715
 20
11.85441934411524
 30
0.0
 11
423.2874213781817
 21
13.1025529009775
 31
0.0
  0
LINE
  5
A5
330
1F
100
AcDbEntity
  8
1
  6
DOT_CENTER
 62
     2
100
AcDbLine
 10
411.5404362464802
 20
8.63767501327199
 30
0.0
 11
434.8047168389308
 21
11.49416949053794
 31
0.0
  0
LINE
  5
A6
330
1F
100
AcDbEntity
  8
1
  6
Continuous
 62
     7
100
AcDbLine
 10
455.122189302715
 20
60.3130564738828
 30
0.0
 11
455.122189302715
 21
41.47581162456677
 31
0.0
  0
LINE
  5
A7
330
1F
100
AcDbEntity
  8
1
  6
Continuous
 62
     7
100
AcDbLine
 10
455.122189302715
 20
41.47581162456677
 30
0.0
 11
442.122189302715
 21
41.47581162456675
 31
0.0
  0
LINE
  5
A8
330
1F
100
AcDbEntity
  8
1
  6
Continuous
 62
     7
100
AcDbLine
 10
442.122189302715
 20
41.47581162456675
 30
0.0
 11
442.122189302715
 21
26.47581162456663
 31
0.0
  0
LINE
  5
A9
330
1F
100
AcDbEntity
  8
1
  6
Continuous
 62
     7
100
AcDbLine
 10
442.122189302715
 20
-3.52418837543325
 30
0.0
 11
397.122189302715
 21
-3.52418837543325
 31
0.0
  0
LINE
  5
AA
330
1F
100
AcDbEntity
  8
1
  6
Continuous
 62
     7
100
AcDbLine
 10
397.122189302715
 20
-3.52418837543325
 30
0.0
 11
397.122189302715
 21
60.3130564738828
 31
0.0
  0
LINE
  5
AB
330
1F
100
AcDbEntity
  8
1
  6
DOT_CENTER
 62
     2
100
AcDbLine
 10
397.122189302715
 20
60.3130564738828
 30
0.0
 11
455.122189302715
 21
60.3130564738828
 31
0.0
  0
LINE
  5
AC
330
1F
100
AcDbEntity
  8
1
  6
DOT_CENTER
 62
     2
100
AcDbLine
 10
455.122189302715
 20
60.3130564738828
 30
0.0
 11
458.16229401996
 21
60.3130564738828
 31
0.0
  0
LINE
  5
AD
330
1F
100
AcDbEntity
  8
1
  6
DOT_CENTER
 62
     2
100
AcDbLine
 10
397.122189302715
 20
60.3130564738828
 30
0.0
 11
395.01700077118
 21
60.3130564738828
 31
0.0
  0
LINE
  5
AE
330
1F
100
AcDbEntity
  8
1
  6
Continuous
 62
     7
100
AcDbLine
 10
442.122189302715
 20
39.47581162456675
 30
0.0
 11
443.8542401102837
 21
36.47581162456675
 31
0.0
  0
LINE
  5
AF
330
1F
100
AcDbEntity
  8
1
  6
Continuous
 62
     7
100
AcDbLine
 10
443.8542401102837
 20
36.47581162456675
 30
0.0
 11
453.3901384951461
 21
36.47581162456675
 31
0.0
  0
LINE
  5
B0
330
1F
100
AcDbEntity
  8
1
  6
Continuous
 62
     7
100
AcDbLine
 10
453.3901384951461
 20
36.47581162456675
 30
0.0
 11
455.122189302715
 21
39.47581162456675
 31
0.0
  0
LINE
  5
B1
330
1F
100
AcDbEntity
  8
1
  6
Continuous
 62
     7
100
AcDbLine
 10
455.122189302715
 20
39.47581162456675
 30
0.0
 11
455.122189302715
 21
41.47581162456677
 31
0.0
  0
LINE
  5
B2
330
1F
100
AcDbEntity
  8
1
  6
Continuous
 62
     7
100
AcDbLine
 10
454.122189302715
 20
40.47581162456675
 30
0.0
 11
454.122189302715
 21
39.74376081699786
 31
0.0
  0
LINE
  5
B3
330
1F
100
AcDbEntity
  8
1
  6
Continuous
 62
     7
100
AcDbLine
 10
454.122189302715
 20
39.74376081699786
 30
0.0
 11
452.8127882259565
 21
37.47581162456675
 31
0.0
  0
LINE
  5
B4
330
1F
100
AcDbEntity
  8
1
  6
Continuous
 62
     7
100
AcDbLine
 10
452.8127882259565
 20
37.47581162456675
 30
0.0
 11
444.4315903794735
 21
37.47581162456675
 31
0.0
  0
LINE
  5
B5
330
1F
100
AcDbEntity
  8
1
  6
Continuous
 62
     7
100
AcDbLine
 10
443.122189302715
 20
39.74376081699786
 30
0.0
 11
443.122189302715
 21
40.47581162456675
 31
0.0
  0
LINE
  5
B6
330
1F
100
AcDbEntity
  8
1
  6
Continuous
 62
     7
100
AcDbLine
 10
443.122189302715
 20
40.47581162456675
 30
0.0
 11
454.122189302715
 21
40.47581162456675
 31
0.0
  0
LINE
  5
B7
330
1F
100
AcDbEntity
  8
1
  6
Continuous
 62
     7
100
AcDbLine
 10
444.4315903794735
 20
37.47581162456675
 30
0.0
 11
443.122189302715
 21
39.74376081699786
 31
0.0
  0
LINE
  5
B8
330
1F
100
AcDbEntity
  8
1
  6
Continuous
 62
     7
100
AcDbLine
 10
442.122189302715
 20
1.47581162456667
 30
0.0
 11
442.122189302715
 21
0.47581162456663
 31
0.0
  0
LINE
  5
B9
330
1F
100
AcDbEntity
  8
1
  6
Continuous
 62
     7
100
AcDbLine
 10
442.122189302715
 20
26.47581162456663
 30
0.0
 11
442.1221893027151
 21
12.71247863354219
 31
0.0
  0
LINE
  5
BA
330
1F
100
AcDbEntity
  8
1
  6
Continuous
 62
     7
100
AcDbLine
 10
432.622189302715
 20
26.47581162456672
 30
0.0
 11
409.122189302715
 21
26.47581162456663
 31
0.0
  0
LINE
  5
BB
330
1F
100
AcDbEntity
  8
1
  6
Continuous
 62
     7
100
AcDbLine
 10
440.622189302715
 20
0.47581162456663
 30
0.0
 11
442.122189302715
 21
0.47581162456663
 31
0.0
  0
LINE
  5
BC
330
1F
100
AcDbEntity
  8
1
  6
Continuous
 62
     7
100
AcDbLine
 10
442.122189302715
 20
0.47581162456663
 30
0.0
 11
442.122189302715
 21
-3.52418837543325
 31
0.0
  0
LINE
  5
BD
330
1F
100
AcDbEntity
  8
1
  6
Continuous
 62
     7
100
AcDbLine
 10
440.622189302715
 20
26.47581162456663
 30
0.0
 11
442.122189302715
 21
26.47581162456663
 31
0.0
  0
LINE
  5
BE
330
1F
100
AcDbEntity
  8
1
  6
Continuous
 62
     7
100
AcDbLine
 10
440.622189302715
 20
1.47581162456655
 30
0.0
 11
440.622189302715
 21
0.47581162456663
 31
0.0
  0
LINE
  5
BF
330
1F
100
AcDbEntity
  8
1
  6
Continuous
 62
     7
100
AcDbLine
 10
440.622189302715
 20
26.47581162456663
 30
0.0
 11
440.6221893027148
 21
13.45278723337613
 31
0.0
  0
LINE
  5
C0
330
1F
100
AcDbEntity
  8
1
  6
Continuous
 62
     7
100
AcDbLine
 10
435.622189302715
 20
25.47581162456665
 30
0.0
 11
440.622189302715
 21
25.47581162456663
 31
0.0
  0
LINE
  5
C1
330
1F
100
AcDbEntity
  8
1
  6
Continuous
 62
     7
100
AcDbLine
 10
435.6221893027143
 20
0.47581162456663
 30
0.0
 11
440.622189302715
 21
0.47581162456663
 31
0.0
  0
LINE
  5
C2
330
1F
100
AcDbEntity
  8
1
  6
Continuous
 62
     7
100
AcDbLine
 10
432.6221893027143
 20
1.47581162456657
 30
0.0
 11
432.6221893027143
 21
0.47581162456663
 31
0.0
  0
LINE
  5
C3
330
1F
100
AcDbEntity
  8
1
  6
Continuous
 62
     7
100
AcDbLine
 10
432.6221893027143
 20
0.47581162456663
 30
0.0
 11
435.6221893027143
 21
0.47581162456663
 31
0.0
  0
LINE
  5
C4
330
1F
100
AcDbEntity
  8
1
  6
Continuous
 62
     7
100
AcDbLine
 10
432.6221893027143
 20
1.47581162456657
 30
0.0
 11
410.6221893027151
 21
1.47581162456662
 31
0.0
  0
LINE
  5
C5
330
1F
100
AcDbEntity
  8
1
  6
Continuous
 62
     7
100
AcDbLine
 10
432.622189302715
 20
25.47581162456665
 30
0.0
 11
432.622189302715
 21
26.47581162456672
 31
0.0
  0
LINE
  5
C6
330
1F
100
AcDbEntity
  8
1
  6
Continuous
 62
     7
100
AcDbLine
 10
432.622189302715
 20
25.47581162456665
 30
0.0
 11
435.622189302715
 21
25.47581162456665
 31
0.0
  0
LINE
  5
C7
330
1F
100
AcDbEntity
  8
1
  6
Continuous
 62
     7
100
AcDbLine
 10
435.622189302715
 20
25.47581162456665
 30
0.0
 11
435.622189302715
 21
26.47581162456663
 31
0.0
  0
LINE
  5
C8
330
1F
100
AcDbEntity
  8
1
  6
Continuous
 62
     7
100
AcDbLine
 10
435.6221893027143
 20
1.47581162456656
 30
0.0
 11
432.6221893027143
 21
1.47581162456657
 31
0.0
  0
LINE
  5
C9
330
1F
100
AcDbEntity
  8
1
  6
Continuous
 62
     7
100
AcDbLine
 10
435.6221893027143
 20
1.47581162456656
 30
0.0
 11
435.6221893027143
 21
0.47581162456663
 31
0.0
  0
LINE
  5
CA
330
1F
100
AcDbEntity
  8
1
  6
Continuous
 62
     7
100
AcDbLine
 10
440.622189302715
 20
1.53466125451416
 30
0.0
 11
440.622189302715
 21
1.47581162456655
 31
0.0
  0
LINE
  5
CB
330
1F
100
AcDbEntity
  8
1
  6
Continuous
 62
     7
100
AcDbLine
 10
442.122189302715
 20
1.56448124458383
 30
0.0
 11
442.122189302715
 21
1.47581162456667
 31
0.0
  0
ARC
  5
CC
330
1F
100
AcDbEntity
  8
1
  6
Continuous
 62
     7
100
AcDbCircle
 10
427.3696807606889
 20
10.5811145107096
 30
0.0
 40
4.00000000000003
100
AcDbArc
 50
-71.31018225159276
 51
-22.04985989326556
  0
ARC
  5
CD
330
1F
100
AcDbEntity
  8
1
  6
Continuous
 62
     7
100
AcDbCircle
 10
437.6242225916225
 20
-19.73236222551502
 30
0.0
 40
4.000000000000064
100
AcDbArc
 50
-71.31018225159293
 51
-64.12964675387217
  0
ARC
  5
CE
330
1F
100
AcDbEntity
  8
1
  6
Continuous
 62
     7
100
AcDbCircle
 10
449.2936597029716
 20
-7.1273339627831
 30
0.0
 40
3.999999999999914
100
AcDbArc
 50
25.87035324612829
 51
29.04142693207402
  0
ARC
  5
CF
330
1F
100
AcDbEntity
  8
1
  6
Continuous
 62
     7
100
AcDbCircle
 10
449.2936597029716
 20
-7.1273339627831
 30
0.0
 40
4.000000000000065
100
AcDbArc
 50
-166.5506763610674
 51
-141.7086171466747
  0
ARC
  5
D0
330
1F
100
AcDbEntity
  8
1
  6
Continuous
 62
     7
100
AcDbCircle
 10
427.3696807606889
 20
10.5811145107096
 30
0.0
 40
4.000000000000044
100
AcDbArc
 50
85.8703532461292
 51
108.6898177484085
  0
ARC
  5
D1
330
1F
100
AcDbEntity
  8
1
  6
Continuous
 62
     7
100
AcDbCircle
 10
437.6242225916225
 20
-19.73236222551502
 30
0.0
 40
3.999999999999908
100
AcDbArc
 50
88.87035324612987
 51
-161.3101822515911
  0
ARC
  5
D2
330
1F
100
AcDbEntity
  8
1
  6
Continuous
 62
     7
100
AcDbCircle
 10
449.2936597029716
 20
-7.1273339627831
 30
0.0
 40
3.999999999999994
100
AcDbArc
 50
-19.12964675387253
 51
25.87035324612829
  0
ARC
  5
D3
330
1F
100
AcDbEntity
  8
1
  6
Continuous
 62
     7
100
AcDbCircle
 10
449.2936597029716
 20
-7.1273339627831
 30
0.0
 40
4.000000000000112
100
AcDbArc
 50
148.4493236389328
 51
-166.5506763610674
  0
ARC
  5
D4
330
1F
100
AcDbEntity
  8
1
  6
Continuous
 62
     7
100
AcDbCircle
 10
449.2936597029716
 20
-7.1273339627831
 30
0.0
 40
4.000000000000112
100
AcDbArc
 50
148.4493236389328
 51
-166.5506763610674
  0
ARC
  5
D5
330
1F
100
AcDbEntity
  8
1
  6
Continuous
 62
     7
100
AcDbCircle
 10
437.622189302715
 20
5.47581162456676
 30
0.0
 40
4.000000000000056
100
AcDbArc
 50
-88.86111030188398
 51
64.13888969811386
  0
ARC
  5
D6
330
1F
100
AcDbEntity
  8
1
  6
Continuous
 62
     7
100
AcDbCircle
 10
449.2936597029716
 20
-7.1273339627831
 30
0.0
 40
3.999999999999867
100
AcDbArc
 50
-29.03218398783249
 51
-25.86111030188674
  0
ARC
  5
D7
330
1F
100
AcDbEntity
  8
1
  6
DASHED
 62
     2
100
AcDbCircle
 10
449.2936597029716
 20
-7.1273339627831
 30
0.0
 40
4.000000000000071
100
AcDbArc
 50
141.7178600909192
 51
-148.4400806946888
  0
ARC
  5
D8
330
1F
100
AcDbEntity
  8
1
  6
Continuous
 62
     7
100
AcDbCircle
 10
427.3725377694884
 20
-24.83931897794633
 30
0.0
 40
3.999999999999945
100
AcDbArc
 50
-108.6805748041634
 51
-85.86111030188485
  0
ARC
  5
D9
330
1F
100
AcDbEntity
  8
1
  6
Continuous
 62
     7
100
AcDbCircle
 10
437.622189302715
 20
5.47581162456676
 30
0.0
 40
4.000000000000156
100
AcDbArc
 50
161.3194251958353
 51
-88.86111030188398
  0
ARC
  5
DA
330
1F
100
AcDbEntity
  8
1
  6
Continuous
 62
     7
100
AcDbCircle
 10
449.2936597029716
 20
-7.1273339627831
 30
0.0
 40
3.999999999999801
100
AcDbArc
 50
-25.86111030188674
 51
19.13888969811439
  0
ARC
  5
DB
330
1F
100
AcDbEntity
  8
1
  6
Continuous
 62
     7
100
AcDbCircle
 10
437.622189302715
 20
5.47581162456676
 30
0.0
 40
4.000000000000018
100
AcDbArc
 50
64.13888969811386
 51
71.31942519583421
  0
ARC
  5
DC
330
1F
100
AcDbEntity
  8
1
  6
Continuous
 62
     7
100
AcDbCircle
 10
427.3725377694884
 20
-24.83931897794633
 30
0.0
 40
3.999999999999846
100
AcDbArc
 50
22.05910283750631
 51
71.319425195834
  0
ARC
  5
DD
330
1F
100
AcDbEntity
  8
1
  6
Continuous
 62
     7
100
AcDbCircle
 10
435.1242225916225
 20
-36.73236222551485
 30
0.0
 40
4.0
100
AcDbArc
 50
-90.0
 51
-0.00000000000092
  0
ARC
  5
DE
330
1F
100
AcDbEntity
  8
1
  6
Continuous
 62
     7
100
AcDbCircle
 10
410.6242225916224
 20
-36.73236222551485
 30
0.0
 40
4.0
100
AcDbArc
 50
180.0
 51
-90.0
  0
CIRCLE
  5
DF
330
1F
100
AcDbEntity
  8
1
  6
Continuous
 62
     7
100
AcDbCircle
 10
437.6242225916225
 20
-19.73236222551502
 30
0.0
 40
2.000000000000009
  0
CIRCLE
  5
E0
330
1F
100
AcDbEntity
  8
1
  6
Continuous
 62
     7
100
AcDbCircle
 10
427.3696807606889
 20
10.5811145107096
 30
0.0
 40
1.999999999999949
  0
CIRCLE
  5
E1
330
1F
100
AcDbEntity
  8
1
  6
Continuous
 62
     7
100
AcDbCircle
 10
449.2936597029716
 20
-7.1273339627831
 30
0.0
 40
2.000000000000046
  0
CIRCLE
  5
E2
330
1F
100
AcDbEntity
  8
1
  6
Continuous
 62
     7
100
AcDbCircle
 10
437.622189302715
 20
5.47581162456676
 30
0.0
 40
1.999999999999947
  0
CIRCLE
  5
E3
330
1F
100
AcDbEntity
  8
1
  6
Continuous
 62
     7
100
AcDbCircle
 10
427.3725377694884
 20
-24.83931897794633
 30
0.0
 40
2.000000000000036
  0
ARC
  5
E4
330
1F
100
AcDbEntity
  8
1
  6
Continuous
 62
     7
100
AcDbCircle
 10
424.8342569740544
 20
11.83475968465956
 30
0.0
 40
1.999999999999912
100
AcDbArc
 50
108.6898177484134
 51
-161.3101822515899
  0
ARC
  5
E5
330
1F
100
AcDbEntity
  8
1
  6
Continuous
 62
     7
100
AcDbCircle
 10
426.1160355867389
 20
8.04569072407503
 30
0.0
 40
1.999999999999906
100
AcDbArc
 50
-161.3101822515917
 51
-71.31018225158967
  0
ARC
  5
E6
330
1F
100
AcDbEntity
  8
1
  6
Continuous
 62
     7
100
AcDbCircle
 10
435.7437548306978
 20
-23.53549790546688
 30
0.0
 40
1.000000000000107
100
AcDbArc
 50
-161.3101822515962
 51
-71.31018225160096
  0
ARC
  5
E7
330
1F
100
AcDbEntity
  8
1
  6
Continuous
 62
     7
100
AcDbCircle
 10
438.742679038003
 20
7.75476642217836
 30
0.0
 40
5.999999999999935
100
AcDbArc
 50
29.0414269320734
 51
85.87035324612916
  0
ARC
  5
E8
330
1F
100
AcDbEntity
  8
1
  6
Continuous
 62
     7
100
AcDbCircle
 10
442.3721816253745
 20
-11.82443023634738
 30
0.0
 40
4.00000000000006
100
AcDbArc
 50
-91.1296467538701
 51
-19.1296467538699
  0
ARC
  5
E9
330
1F
100
AcDbEntity
  8
1
  6
Continuous
 62
     7
100
AcDbCircle
 10
438.166827769739
 20
7.79634346118132
 30
0.0
 40
2.500000000000038
100
AcDbArc
 50
49.00045560028237
 51
85.87035324612815
  0
ARC
  5
EA
330
1F
100
AcDbEntity
  8
1
  6
Continuous
 62
     7
100
AcDbCircle
 10
444.7790356773979
 20
-14.03998905819017
 30
0.0
 40
6.000000000000064
100
AcDbArc
 50
-64.12964675387049
 51
-19.12964675387117
  0
ARC
  5
EB
330
1F
100
AcDbEntity
  8
1
  6
Continuous
 62
     7
100
AcDbCircle
 10
433.3942545994139
 20
8.14092802977206
 30
0.0
 40
2.499999999999983
100
AcDbArc
 50
85.87035324612945
 51
157.950140106739
  0
ARC
  5
EC
330
1F
100
AcDbEntity
  8
1
  6
Continuous
 62
     7
100
AcDbCircle
 10
438.166827769739
 20
7.79634346118132
 30
0.0
 40
2.500000000000001
100
AcDbArc
 50
25.8703532461275
 51
49.00045560028237
  0
ARC
  5
ED
330
1F
100
AcDbEntity
  8
1
  6
Continuous
 62
     7
100
AcDbCircle
 10
444.1920074659613
 20
-11.15513043884903
 30
0.0
 40
2.499999999999834
100
AcDbArc
 50
-19.12964675386976
 51
38.29138285332394
  0
ARC
  5
EE
330
1F
100
AcDbEntity
  8
1
  6
Continuous
 62
     7
100
AcDbCircle
 10
443.7545046728462
 20
-3.72619274956691
 30
0.0
 40
2.499999999999946
100
AcDbArc
 50
-31.55067636106669
 51
25.87035324612865
  0
ARC
  5
EF
330
1F
100
AcDbEntity
  8
1
  6
DASHED
 62
     2
100
AcDbCircle
 10
442.3714239807637
 20
-2.43135432185846
 30
0.0
 40
3.999999999999884
100
AcDbArc
 50
19.13888969811258
 51
63.22717501193433
  0
ARC
  5
F0
330
1F
100
AcDbEntity
  8
1
  6
Continuous
 62
     7
100
AcDbCircle
 10
438.7450799528831
 20
-22.0111362362828
 30
0.0
 40
6.000000000000111
100
AcDbArc
 50
-85.86111030188758
 51
-29.03218398783212
  0
ARC
  5
F1
330
1F
100
AcDbEntity
  8
1
  6
Continuous
 62
     7
100
AcDbCircle
 10
442.3714239807637
 20
-2.43135432185846
 30
0.0
 40
4.000000000000083
100
AcDbArc
 50
63.22717501193433
 51
91.13888969811195
  0
ARC
  5
F2
330
1F
100
AcDbEntity
  8
1
  6
Continuous
 62
     7
100
AcDbCircle
 10
444.7779205879433
 20
-0.21540725560891
 30
0.0
 40
5.99999999999999
100
AcDbArc
 50
19.13888969811376
 51
64.13888969811285
  0
ARC
  5
F3
330
1F
100
AcDbEntity
  8
1
  6
Continuous
 62
     7
100
AcDbCircle
 10
433.3967178794046
 20
-22.39816064566028
 30
0.0
 40
2.500000000000109
100
AcDbArc
 50
-157.940897162496
 51
-85.86111030188403
  0
ARC
  5
F4
330
1F
100
AcDbEntity
  8
1
  6
Continuous
 62
     7
100
AcDbCircle
 10
438.1692353993121
 20
-22.05280617096139
 30
0.0
 40
2.500000000000052
100
AcDbArc
 50
-48.99121265603857
 51
-25.8611103018861
  0
ARC
  5
F5
330
1F
100
AcDbEntity
  8
1
  6
DASHED
 62
     2
100
AcDbCircle
 10
444.1913577689862
 20
-3.10036053669114
 30
0.0
 40
2.500000000000045
100
AcDbArc
 50
-38.28213990908053
 51
19.1388896981143
  0
ARC
  5
F6
330
1F
100
AcDbEntity
  8
1
  6
Continuous
 62
     7
100
AcDbCircle
 10
443.7550534163726
 20
-10.52936870717451
 30
0.0
 40
2.499999999999885
100
AcDbArc
 50
-25.86111030188831
 51
31.55991930530846
  0
ARC
  5
F7
330
1F
100
AcDbEntity
  8
1
  6
Continuous
 62
     7
100
AcDbCircle
 10
438.1692353993121
 20
-22.05280617096139
 30
0.0
 40
2.499999999999999
100
AcDbArc
 50
-85.86111030188282
 51
-48.99121265603857
  0
ARC
  5
F8
330
1F
100
AcDbEntity
  8
1
  6
Continuous
 62
     7
100
AcDbCircle
 10
435.7411080451377
 20
9.27864389833212
 30
0.0
 40
1.000000000000064
100
AcDbArc
 50
71.31942519583208
 51
161.3194251958371
  0
ARC
  5
F9
330
1F
100
AcDbEntity
  8
1
  6
Continuous
 62
     7
100
AcDbCircle
 10
426.1184835977703
 20
-22.30409746210287
 30
0.0
 40
2.00000000000009
100
AcDbArc
 50
71.31942519583173
 51
161.3194251958335
  0
ARC
  5
FA
330
1F
100
AcDbEntity
  8
1
  6
Continuous
 62
     7
100
AcDbCircle
 10
424.837316253645
 20
-26.0933731496645
 30
0.0
 40
1.999999999999982
100
AcDbArc
 50
161.3194251958383
 51
-108.680574804168
  0
ARC
  5
FB
330
1F
100
AcDbEntity
  8
1
  6
DASHED
 62
     2
100
AcDbCircle
 10
429.4477532703604
 20
-25.5957757402782
 30
0.0
 40
2.500000000000001
100
AcDbArc
 50
-97.00000000000074
 51
-7.00000000000181
  0
ARC
  5
FC
330
1F
100
AcDbEntity
  8
1
  6
Continuous
 62
     7
100
AcDbCircle
 10
435.1242225916225
 20
-36.73236222551485
 30
0.0
 40
1.0
100
AcDbArc
 50
-90.0
 51
0.0
  0
ARC
  5
FD
330
1F
100
AcDbEntity
  8
1
  6
Continuous
 62
     7
100
AcDbCircle
 10
410.6242225916224
 20
-36.73236222551485
 30
0.0
 40
1.0
100
AcDbArc
 50
180.0
 51
-90.0
  0
ARC
  5
FE
330
1F
100
AcDbEntity
  8
1
  6
DASHED
 62
     2
100
AcDbCircle
 10
429.5696226137657
 20
-24.60322958863678
 30
0.0
 40
2.499999999999974
100
AcDbArc
 50
69.9966131242377
 51
83.00000000000182
  0
ARC
  5
FF
330
1F
100
AcDbEntity
  8
1
  6
Continuous
 62
     7
100
AcDbCircle
 10
429.5696226137657
 20
-24.60322958863678
 30
0.0
 40
2.499999999999858
100
AcDbArc
 50
2.00215179884684
 51
69.9966131242377
  0
ARC
  5
100
330
1F
100
AcDbEntity
  8
1
  6
DASHED
 62
     2
100
AcDbCircle
 10
429.5696226137657
 20
-24.60322958863678
 30
0.0
 40
2.499999999999994
100
AcDbArc
 50
-7.00000000000075
 51
2.00215179884684
  0
ARC
  5
101
330
1F
100
AcDbEntity
  8
1
  6
DASHED
 62
     2
100
AcDbCircle
 10
429.5601354764993
 20
10.34646095810265
 30
0.0
 40
2.500000000000036
100
AcDbArc
 50
-2.11683002208698
 51
7.0000000000027
  0
ARC
  5
102
330
1F
100
AcDbEntity
  8
1
  6
DASHED
 62
     2
100
AcDbCircle
 10
429.4382661330942
 20
11.33900710974426
 30
0.0
 40
2.500000000000093
100
AcDbArc
 50
6.99999999999793
 51
96.99999999999818
  0
ARC
  5
103
330
1F
100
AcDbEntity
  8
1
  6
DASHED
 62
     2
100
AcDbCircle
 10
429.5601354764993
 20
10.34646095810265
 30
0.0
 40
2.499999999999905
100
AcDbArc
 50
-82.99999999999638
 51
-69.71906711695918
  0
ARC
  5
104
330
1F
100
AcDbEntity
  8
1
  6
Continuous
 62
     7
100
AcDbCircle
 10
429.5601354764993
 20
10.34646095810265
 30
0.0
 40
2.500000000000121
100
AcDbArc
 50
-69.71906711695918
 51
-2.11683002208698
  0
ENDSEC
  0
SECTION
  2
OBJECTS
  0
DICTIONARY
  5
C
330
0
100
AcDbDictionary
281
     1
  3
ACAD_GROUP
350
D
  3
ACAD_LAYOUT
350
1A
  3
ACAD_MLINESTYLE
350
17
  3
ACAD_PLOTSETTINGS
350
19
  3
ACAD_PLOTSTYLENAME
350
E
  0
DICTIONARY
  5
D
102
{ACAD_REACTORS
330
C
102
}
330
C
100
AcDbDictionary
281
     1
  0
DICTIONARY
  5
1A
102
{ACAD_REACTORS
330
C
102
}
330
C
100
AcDbDictionary
281
     1
  3
Layout1
350
1E
  3
Layout2
350
26
  3
Model
350
22
  0
DICTIONARY
  5
17
102
{ACAD_REACTORS
330
C
102
}
330
C
100
AcDbDictionary
281
     1
  3
Standard
350
18
  0
DICTIONARY
  5
19
102
{ACAD_REACTORS
330
C
102
}
330
C
100
AcDbDictionary
281
     1
  0
ACDBDICTIONARYWDFLT
  5
E
102
{ACAD_REACTORS
330
C
102
}
330
C
100
AcDbDictionary
281
     1
  3
Normal
350
F
100
AcDbDictionaryWithDefault
340
F
  0
LAYOUT
  5
1E
102
{ACAD_REACTORS
330
1A
102
}
330
1A
100
AcDbPlotSettings
  1

  2

  4

  6

 40
0.0
 41
0.0
 42
0.0
 43
0.0
 44
0.0
 45
0.0
 46
0.0
 47
0.0
 48
0.0
 49
0.0
140
0.0
141
0.0
142
1.0
143
1.0
 70
   688
 72
     0
 73
     0
 74
     5
  7

 75
    16
 76
     0
 77
     2
 78
   300
147
1.0
148
0.0
149
0.0
100
AcDbLayout
  1
Layout1
 70
     1
 71
     1
 10
0.0
 20
0.0
 11
0.0
 21
0.0
 12
0.0
 22
0.0
 32
0.0
 14
0.0
 24
0.0
 34
0.0
 15
0.0
 25
0.0
 35
0.0
146
0.0
 13
0.0
 23
0.0
 33
0.0
 16
1.0
 26
0.0
 36
0.0
 17
0.0
 27
1.0
 37
0.0
 76
     0
330
1B
  0
LAYOUT
  5
26
102
{ACAD_REACTORS
330
1A
102
}
330
1A
100
AcDbPlotSettings
  1

  2

  4

  6

 40
0.0
 41
0.0
 42
0.0
 43
0.0
 44
0.0
 45
0.0
 46
0.0
 47
0.0
 48
0.0
 49
0.0
140
0.0
141
0.0
142
1.0
143
1.0
 70
   688
 72
     0
 73
     0
 74
     5
  7

 75
    16
 76
     0
 77
     2
 78
   300
147
1.0
148
0.0
149
0.0
100
AcDbLayout
  1
Layout2
 70
     1
 71
     2
 10
0.0
 20
0.0
 11
0.0
 21
0.0
 12
0.0
 22
0.0
 32
0.0
 14
0.0
 24
0.0
 34
0.0
 15
0.0
 25
0.0
 35
0.0
146
0.0
 13
0.0
 23
0.0
 33
0.0
 16
1.0
 26
0.0
 36
0.0
 17
0.0
 27
1.0
 37
0.0
 76
     0
330
23
  0
LAYOUT
  5
22
102
{ACAD_REACTORS
330
1A
102
}
330
1A
100
AcDbPlotSettings
  1

  2

  4

  6

 40
0.0
 41
0.0
 42
0.0
 43
0.0
 44
0.0
 45
0.0
 46
0.0
 47
0.0
 48
0.0
 49
0.0
140
0.0
141
0.0
142
1.0
143
1.0
 70
  1712
 72
     0
 73
     0
 74
     0
  7

 75
     0
 76
     0
 77
     2
 78
   300
147
1.0
148
0.0
149
0.0
100
AcDbLayout
  1
Model
 70
     1
 71
     0
 10
0.0
 20
0.0
 11
0.0
 21
0.0
 12
0.0
 22
0.0
 32
0.0
 14
395.01700077118
 24
-53.55790891177797
 34
0.0
 15
458.16229401996
 25
60.3130564738828
 35
0.0
146
0.0
 13
0.0
 23
0.0
 33
0.0
 16
1.0
 26
0.0
 36
0.0
 17
0.0
 27
1.0
 37
0.0
 76
     0
330
1F
  0
MLINESTYLE
  5
18
102
{ACAD_REACTORS
330
17
102
}
330
17
100
AcDbMlineStyle
  2
Standard
 70
     0
  3

 62
   256
 51
90.0
 52
90.0
 71
     2
 49
0.5
 62
   256
  6
BYLAYER
 49
-0.5
 62
   256
  6
BYLAYER
  0
ACDBPLACEHOLDER
  5
F
102
{ACAD_REACTORS
330
E
102
}
330
E
  0
ENDSEC
  0
EOF
