  0
SECTION
  2
HEADER
  9
$ACADVER
  1
AC1024
  9
$ACADMAINTVER
 70
     6
  9
$DWGCODEPAGE
  3
ANSI_1252
  9
$INSBASE
 10
0.0
 20
0.0
 30
0.0
  9
$EXTMIN
 10
968.1628013101326
 20
-72.68504911103417
 30
0.0
  9
$EXTMAX
 10
1040.168697116951
 20
62.63005001241072
 30
0.0
  9
$LIMMIN
 10
0.0
 20
0.0
  9
$LIMMAX
 10
12.0
 20
9.0
  9
$ORTHOMODE
 70
     0
  9
$REGENMODE
 70
     1
  9
$FILLMODE
 70
     1
  9
$QTEXTMODE
 70
     0
  9
$MIRRTEXT
 70
     1
  9
$LTSCALE
 40
1.0
  9
$ATTMODE
 70
     1
  9
$TEXTSIZE
 40
0.2
  9
$TRACEWID
 40
0.05
  9
$TEXTSTYLE
  7
Standard
  9
$CLAYER
  8
0
  9
$CELTYPE
  6
ByLayer
  9
$CECOLOR
 62
   256
  9
$CELTSCALE
 40
1.0
  9
$DISPSILH
 70
     0
  9
$DIMSCALE
 40
1.0
  9
$DIMASZ
 40
0.18
  9
$DIMEXO
 40
0.0625
  9
$DIMDLI
 40
0.38
  9
$DIMRND
 40
0.0
  9
$DIMDLE
 40
0.0
  9
$DIMEXE
 40
0.18
  9
$DIMTP
 40
0.0
  9
$DIMTM
 40
0.0
  9
$DIMTXT
 40
0.18
  9
$DIMCEN
 40
0.09
  9
$DIMTSZ
 40
0.0
  9
$DIMTOL
 70
     0
  9
$DIMLIM
 70
     0
  9
$DIMTIH
 70
     1
  9
$DIMTOH
 70
     1
  9
$DIMSE1
 70
     0
  9
$DIMSE2
 70
     0
  9
$DIMTAD
 70
     0
  9
$DIMZIN
 70
     0
  9
$DIMBLK
  1

  9
$DIMASO
 70
     1
  9
$DIMSHO
 70
     1
  9
$DIMPOST
  1

  9
$DIMAPOST
  1

  9
$DIMALT
 70
     0
  9
$DIMALTD
 70
     2
  9
$DIMALTF
 40
25.4
  9
$DIMLFAC
 40
1.0
  9
$DIMTOFL
 70
     0
  9
$DIMTVP
 40
0.0
  9
$DIMTIX
 70
     0
  9
$DIMSOXD
 70
     0
  9
$DIMSAH
 70
     0
  9
$DIMBLK1
  1

  9
$DIMBLK2
  1

  9
$DIMSTYLE
  2
Standard
  9
$DIMCLRD
 70
     0
  9
$DIMCLRE
 70
     0
  9
$DIMCLRT
 70
     0
  9
$DIMTFAC
 40
1.0
  9
$DIMGAP
 40
0.09
  9
$DIMJUST
 70
     0
  9
$DIMSD1
 70
     0
  9
$DIMSD2
 70
     0
  9
$DIMTOLJ
 70
     1
  9
$DIMTZIN
 70
     0
  9
$DIMALTZ
 70
     0
  9
$DIMALTTZ
 70
     0
  9
$DIMUPT
 70
     0
  9
$DIMDEC
 70
     4
  9
$DIMTDEC
 70
     4
  9
$DIMALTU
 70
     2
  9
$DIMALTTD
 70
     2
  9
$DIMTXSTY
  7
Standard
  9
$DIMAUNIT
 70
     0
  9
$DIMADEC
 70
     0
  9
$DIMALTRND
 40
0.0
  9
$DIMAZIN
 70
     0
  9
$DIMDSEP
 70
    46
  9
$DIMATFIT
 70
     3
  9
$DIMFRAC
 70
     0
  9
$DIMLDRBLK
  1

  9
$DIMLUNIT
 70
     2
  9
$DIMLWD
 70
    -2
  9
$DIMLWE
 70
    -2
  9
$DIMTMOVE
 70
     0
  9
$DIMFXL
 40
1.0
  9
$DIMFXLON
 70
     0
  9
$DIMJOGANG
 40
0.78539816339745
  9
$DIMTFILL
 70
     0
  9
$DIMTFILLCLR
 70
     0
  9
$DIMARCSYM
 70
     0
  9
$DIMLTYPE
  6

  9
$DIMLTEX1
  6

  9
$DIMLTEX2
  6

  9
$DIMTXTDIRECTION
 70
     0
  9
$LUNITS
 70
     2
  9
$LUPREC
 70
     4
  9
$SKETCHINC
 40
0.1
  9
$FILLETRAD
 40
0.5
  9
$AUNITS
 70
     0
  9
$AUPREC
 70
     0
  9
$MENU
  1
.
  9
$ELEVATION
 40
0.0
  9
$PELEVATION
 40
0.0
  9
$THICKNESS
 40
0.0
  9
$LIMCHECK
 70
     0
  9
$CHAMFERA
 40
0.5
  9
$CHAMFERB
 40
0.5
  9
$CHAMFERC
 40
1.0
  9
$CHAMFERD
 40
0.0
  9
$SKPOLY
 70
     0
  9
$TDCREATE
 40
2457228.362304259
  9
$TDUCREATE
 40
2457228.278970926
  9
$TDUPDATE
 40
2457228.362305116
  9
$TDUUPDATE
 40
2457228.278971782
  9
$TDINDWG
 40
0.0000000116
  9
$TDUSRTIMER
 40
0.0000000116
  9
$USRTIMER
 70
     1
  9
$ANGBASE
 50
0.0
  9
$ANGDIR
 70
     0
  9
$PDMODE
 70
     0
  9
$PDSIZE
 40
0.0
  9
$PLINEWID
 40
0.0
  9
$SPLFRAME
 70
     0
  9
$SPLINETYPE
 70
     6
  9
$SPLINESEGS
 70
     8
  9
$HANDSEED
  5
19D
  9
$SURFTAB1
 70
     6
  9
$SURFTAB2
 70
     6
  9
$SURFTYPE
 70
     6
  9
$SURFU
 70
     6
  9
$SURFV
 70
     6
  9
$UCSBASE
  2

  9
$UCSNAME
  2

  9
$UCSORG
 10
0.0
 20
0.0
 30
0.0
  9
$UCSXDIR
 10
1.0
 20
0.0
 30
0.0
  9
$UCSYDIR
 10
0.0
 20
1.0
 30
0.0
  9
$UCSORTHOREF
  2

  9
$UCSORTHOVIEW
 70
     0
  9
$UCSORGTOP
 10
0.0
 20
0.0
 30
0.0
  9
$UCSORGBOTTOM
 10
0.0
 20
0.0
 30
0.0
  9
$UCSORGLEFT
 10
0.0
 20
0.0
 30
0.0
  9
$UCSORGRIGHT
 10
0.0
 20
0.0
 30
0.0
  9
$UCSORGFRONT
 10
0.0
 20
0.0
 30
0.0
  9
$UCSORGBACK
 10
0.0
 20
0.0
 30
0.0
  9
$PUCSBASE
  2

  9
$PUCSNAME
  2

  9
$PUCSORG
 10
0.0
 20
0.0
 30
0.0
  9
$PUCSXDIR
 10
1.0
 20
0.0
 30
0.0
  9
$PUCSYDIR
 10
0.0
 20
1.0
 30
0.0
  9
$PUCSORTHOREF
  2

  9
$PUCSORTHOVIEW
 70
     0
  9
$PUCSORGTOP
 10
0.0
 20
0.0
 30
0.0
  9
$PUCSORGBOTTOM
 10
0.0
 20
0.0
 30
0.0
  9
$PUCSORGLEFT
 10
0.0
 20
0.0
 30
0.0
  9
$PUCSORGRIGHT
 10
0.0
 20
0.0
 30
0.0
  9
$PUCSORGFRONT
 10
0.0
 20
0.0
 30
0.0
  9
$PUCSORGBACK
 10
0.0
 20
0.0
 30
0.0
  9
$USERI1
 70
     0
  9
$USERI2
 70
     0
  9
$USERI3
 70
     0
  9
$USERI4
 70
     0
  9
$USERI5
 70
     0
  9
$USERR1
 40
18.1
  9
$USERR2
 40
0.0
  9
$USERR3
 40
0.0
  9
$USERR4
 40
0.0
  9
$USERR5
 40
0.0
  9
$WORLDVIEW
 70
     1
  9
$SHADEDGE
 70
     3
  9
$SHADEDIF
 70
    70
  9
$TILEMODE
 70
     1
  9
$MAXACTVP
 70
    64
  9
$PINSBASE
 10
0.0
 20
0.0
 30
0.0
  9
$PLIMCHECK
 70
     0
  9
$PEXTMIN
 10
1.00000000000000E+20
 20
1.00000000000000E+20
 30
1.00000000000000E+20
  9
$PEXTMAX
 10
-1.00000000000000E+20
 20
-1.00000000000000E+20
 30
-1.00000000000000E+20
  9
$PLIMMIN
 10
0.0
 20
0.0
  9
$PLIMMAX
 10
12.0
 20
9.0
  9
$UNITMODE
 70
     0
  9
$VISRETAIN
 70
     1
  9
$PLINEGEN
 70
     0
  9
$PSLTSCALE
 70
     1
  9
$TREEDEPTH
 70
  3020
  9
$CMLSTYLE
  2
Standard
  9
$CMLJUST
 70
     0
  9
$CMLSCALE
 40
1.0
  9
$PROXYGRAPHICS
 70
     1
  9
$MEASUREMENT
 70
     1
  9
$CELWEIGHT
370
    -1
  9
$ENDCAPS
280
     0
  9
$JOINSTYLE
280
     0
  9
$LWDISPLAY
290
     0
  9
$INSUNITS
 70
     4
  9
$HYPERLINKBASE
  1

  9
$STYLESHEET
  1

  9
$XEDIT
290
     1
  9
$CEPSNTYPE
380
     0
  9
$PSTYLEMODE
290
     1
  9
$FINGERPRINTGUID
  2
{5D7FCDD9-FB88-49FF-82C0-40EB92C7E087}
  9
$VERSIONGUID
  2
{FAEB1C32-E019-11D5-929B-00C0DF256EC4}
  9
$EXTNAMES
290
     1
  9
$PSVPSCALE
 40
0.0
  9
$OLESTARTUP
290
     0
  9
$SORTENTS
280
   127
  9
$INDEXCTL
280
     0
  9
$HIDETEXT
280
     1
  9
$XCLIPFRAME
280
     2
  9
$HALOGAP
280
     0
  9
$OBSCOLOR
 70
   257
  9
$OBSLTYPE
280
     0
  9
$INTERSECTIONDISPLAY
280
     0
  9
$INTERSECTIONCOLOR
 70
   257
  9
$DIMASSOC
280
     2
  9
$PROJECTNAME
  1

  9
$CAMERADISPLAY
290
     0
  9
$LENSLENGTH
 40
50.0
  9
$CAMERAHEIGHT
 40
0.0
  9
$STEPSPERSEC
 40
2.0
  9
$STEPSIZE
 40
6.0
  9
$3DDWFPREC
 40
2.0
  9
$PSOLWIDTH
 40
0.25
  9
$PSOLHEIGHT
 40
4.0
  9
$LOFTANG1
 40
1.5707963267949
  9
$LOFTANG2
 40
1.5707963267949
  9
$LOFTMAG1
 40
0.0
  9
$LOFTMAG2
 40
0.0
  9
$LOFTPARAM
 70
     7
  9
$LOFTNORMALS
280
     1
  9
$LATITUDE
 40
37.795
  9
$LONGITUDE
 40
-122.394
  9
$NORTHDIRECTION
 40
0.0
  9
$TIMEZONE
 70
 -8000
  9
$LIGHTGLYPHDISPLAY
280
     1
  9
$TILEMODELIGHTSYNCH
280
     1
  9
$SOLIDHIST
280
     1
  9
$SHOWHIST
280
     1
  9
$DWFFRAME
280
     2
  9
$DGNFRAME
280
     2
  9
$REALWORLDSCALE
290
     1
  9
$INTERFERECOLOR
 62
   256
  9
$CSHADOW
280
     0
  9
$SHADOWPLANELOCATION
 40
0.0
  0
ENDSEC
  0
SECTION
  2
CLASSES
  0
CLASS
  1
ACDBDICTIONARYWDFLT
  2
AcDbDictionaryWithDefault
  3
ObjectDBX Classes
 90
        0
 91
        4
280
     0
281
     0
  0
CLASS
  1
VISUALSTYLE
  2
AcDbVisualStyle
  3
ObjectDBX Classes
 90
     4095
 91
        4
280
     0
281
     0
  0
CLASS
  1
MATERIAL
  2
AcDbMaterial
  3
ObjectDBX Classes
 90
     1153
 91
        4
280
     0
281
     0
  0
ENDSEC
  0
SECTION
  2
TABLES
  0
TABLE
  2
VPORT
  5
8
330
0
100
AcDbSymbolTable
 70
     1
  0
VPORT
  5
29
330
8
100
AcDbSymbolTableRecord
100
AcDbViewportTableRecord
  2
*Active
 70
     0
 10
0.0
 20
0.0
 11
1.0
 21
1.0
 12
1004.165749213542
 22
-5.02749954931173
 13
0.0
 23
0.0
 14
0.5
 24
0.5
 15
0.5
 25
0.5
 16
0.0
 26
0.0
 36
1.0
 17
0.0
 27
0.0
 37
0.0
 40
148.8466090357894
 41
1.60267857142857
 42
50.0
 43
0.0
 44
0.0
 50
0.0
 51
0.0
 71
     0
 72
   100
 73
     1
 74
     3
 75
     0
 76
     0
 77
     0
 78
     0
281
     0
 65
     1
110
0.0
120
0.0
130
0.0
111
1.0
121
0.0
131
0.0
112
0.0
122
1.0
132
0.0
 79
     0
146
0.0
 60
     3
 61
     5
292
     1
282
     1
141
0.0
142
0.0
 63
   250
  0
ENDTAB
  0
TABLE
  2
LTYPE
  5
5
330
0
100
AcDbSymbolTable
 70
    12
  0
LTYPE
  5
14
330
5
100
AcDbSymbolTableRecord
100
AcDbLinetypeTableRecord
  2
ByBlock
 70
     0
  3

 72
    65
 73
     0
 40
0.0
  0
LTYPE
  5
15
330
5
100
AcDbSymbolTableRecord
100
AcDbLinetypeTableRecord
  2
ByLayer
 70
     0
  3

 72
    65
 73
     0
 40
0.0
  0
LTYPE
  5
16
330
5
100
AcDbSymbolTableRecord
100
AcDbLinetypeTableRecord
  2
Continuous
 70
     0
  3
Solid line
 72
    65
 73
     0
 40
0.0
  0
LTYPE
  5
3F
330
5
100
AcDbSymbolTableRecord
100
AcDbLinetypeTableRecord
  2
DASHED
 70
     0
  3
Dashed
 72
    65
 73
     2
 40
15.0
 49
7.0
 74
     0
 49
-8.0
 74
     0
  0
LTYPE
  5
40
330
5
100
AcDbSymbolTableRecord
100
AcDbLinetypeTableRecord
  2
DOTTED
 70
     0
  3
Dotted
 72
    65
 73
     2
 40
1.0
 49
0.0
 74
     0
 49
-1.0
 74
     0
  0
LTYPE
  5
41
330
5
100
AcDbSymbolTableRecord
100
AcDbLinetypeTableRecord
  2
DOT_CENTER
 70
     0
  3
Dot_Center
 72
    65
 73
     4
 40
14.0
 49
12.0
 74
     0
 49
-1.0
 74
     0
 49
0.0
 74
     0
 49
-1.0
 74
     0
  0
LTYPE
  5
42
330
5
100
AcDbSymbolTableRecord
100
AcDbLinetypeTableRecord
  2
LONG_DASHED
 70
     0
  3
Long_Dashed
 72
    65
 73
     2
 40
15.0
 49
10.0
 74
     0
 49
-5.0
 74
     0
  0
LTYPE
  5
43
330
5
100
AcDbSymbolTableRecord
100
AcDbLinetypeTableRecord
  2
DASH_CENTER
 70
     0
  3
Dash_Center
 72
    65
 73
     4
 40
14.0
 49
11.0
 74
     0
 49
-1.0
 74
     0
 49
1.0
 74
     0
 49
-1.0
 74
     0
  0
LTYPE
  5
44
330
5
100
AcDbSymbolTableRecord
100
AcDbLinetypeTableRecord
  2
PHANTOM
 70
     0
  3
Phantom
 72
    65
 73
     6
 40
13.0
 49
10.0
 74
     0
 49
-1.0
 74
     0
 49
0.0
 74
     0
 49
-1.0
 74
     0
 49
0.0
 74
     0
 49
-1.0
 74
     0
  0
LTYPE
  5
45
330
5
100
AcDbSymbolTableRecord
100
AcDbLinetypeTableRecord
  2
CENTER_DASH_DASH
 70
     0
  3
Center_Dash_Dash
 72
    65
 73
     6
 40
14.0
 49
9.0
 74
     0
 49
-1.0
 74
     0
 49
1.0
 74
     0
 49
-1.0
 74
     0
 49
1.0
 74
     0
 49
-1.0
 74
     0
  0
LTYPE
  5
46
330
5
100
AcDbSymbolTableRecord
100
AcDbLinetypeTableRecord
  2
HIDDEN
 70
     0
  3
HIDDEN
 72
    65
 73
     2
 40
4.0
 49
2.0
 74
     0
 49
-2.0
 74
     0
  0
LTYPE
  5
47
330
5
100
AcDbSymbolTableRecord
100
AcDbLinetypeTableRecord
  2
CENTER_1
 70
     0
  3
CENTER_1
 72
    65
 73
     4
 40
15.0
 49
9.0
 74
     0
 49
-2.0
 74
     0
 49
2.0
 74
     0
 49
-2.0
 74
     0
  0
LTYPE
  5
48
330
5
100
AcDbSymbolTableRecord
100
AcDbLinetypeTableRecord
  2
CENTER
 70
     0
  3
CENTER
 72
    65
 73
     4
 40
14.0
 49
8.0
 74
     0
 49
-2.0
 74
     0
 49
2.0
 74
     0
 49
-2.0
 74
     0
  0
LTYPE
  5
49
330
5
100
AcDbSymbolTableRecord
100
AcDbLinetypeTableRecord
  2
CENTER_3
 70
     0
  3
CENTER_3
 72
    65
 73
     4
 40
15.0
 49
9.0
 74
     0
 49
-2.0
 74
     0
 49
2.0
 74
     0
 49
-2.0
 74
     0
  0
ENDTAB
  0
TABLE
  2
LAYER
  5
2
330
0
100
AcDbSymbolTable
 70
     7
  0
LAYER
  5
10
330
2
100
AcDbSymbolTableRecord
100
AcDbLayerTableRecord
  2
0
 70
     0
 62
     7
  6
Continuous
370
    -3
390
F
347
3E
  0
LAYER
  5
4A
330
2
100
AcDbSymbolTableRecord
100
AcDbLayerTableRecord
  2
1
 70
     0
 62
     7
  6
Continuous
370
    -3
390
F
347
3E
  0
LAYER
  5
4B
330
2
100
AcDbSymbolTableRecord
100
AcDbLayerTableRecord
  2
A_ACHSEN
 70
     0
 62
     7
  6
Continuous
370
    -3
390
F
347
3E
  0
LAYER
  5
4C
330
2
100
AcDbSymbolTableRecord
100
AcDbLayerTableRecord
  2
A_BEMASSUNGEN
 70
     0
 62
     7
  6
Continuous
370
    -3
390
F
347
3E
  0
LAYER
  5
4D
330
2
100
AcDbSymbolTableRecord
100
AcDbLayerTableRecord
  2
A_RUNDUNGEN
 70
     0
 62
     7
  6
Continuous
370
    -3
390
F
347
3E
  0
LAYER
  5
4E
330
2
100
AcDbSymbolTableRecord
100
AcDbLayerTableRecord
  2
DEFAULT_1
 70
     0
 62
     7
  6
Continuous
370
    -3
390
F
347
3E
  0
LAYER
  5
4F
330
2
100
AcDbSymbolTableRecord
100
AcDbLayerTableRecord
  2
DEFAULT_2
 70
     0
 62
     7
  6
Continuous
370
    -3
390
F
347
3E
  0
ENDTAB
  0
TABLE
  2
STYLE
  5
3
330
0
100
AcDbSymbolTable
 70
     1
  0
STYLE
  5
11
330
3
100
AcDbSymbolTableRecord
100
AcDbTextStyleTableRecord
  2
Standard
 70
     0
 40
0.0
 41
1.0
 50
0.0
 71
     0
 42
0.2
  3
txt
  4

  0
ENDTAB
  0
TABLE
  2
VIEW
  5
6
330
0
100
AcDbSymbolTable
 70
     0
  0
ENDTAB
  0
TABLE
  2
UCS
  5
7
330
0
100
AcDbSymbolTable
 70
     0
  0
ENDTAB
  0
TABLE
  2
APPID
  5
9
330
0
100
AcDbSymbolTable
 70
     1
  0
APPID
  5
12
330
9
100
AcDbSymbolTableRecord
100
AcDbRegAppTableRecord
  2
ACAD
 70
     0
  0
ENDTAB
  0
TABLE
  2
DIMSTYLE
  5
A
330
0
100
AcDbSymbolTable
 70
     1
100
AcDbDimStyleTable
  0
DIMSTYLE
105
27
330
A
100
AcDbSymbolTableRecord
100
AcDbDimStyleTableRecord
  2
Standard
 70
     0
178
     0
340
11
  0
ENDTAB
  0
TABLE
  2
BLOCK_RECORD
  5
1
330
0
100
AcDbSymbolTable
 70
     1
  0
BLOCK_RECORD
  5
1F
330
1
100
AcDbSymbolTableRecord
100
AcDbBlockTableRecord
  2
*Model_Space
340
22
 70
     0
280
     1
281
     0
  0
BLOCK_RECORD
  5
1B
330
1
100
AcDbSymbolTableRecord
100
AcDbBlockTableRecord
  2
*Paper_Space
340
1E
 70
     0
280
     1
281
     0
  0
BLOCK_RECORD
  5
23
330
1
100
AcDbSymbolTableRecord
100
AcDbBlockTableRecord
  2
*Paper_Space0
340
26
 70
     0
280
     1
281
     0
  0
ENDTAB
  0
ENDSEC
  0
SECTION
  2
BLOCKS
  0
BLOCK
  5
20
330
1F
100
AcDbEntity
  8
0
100
AcDbBlockBegin
  2
*Model_Space
 70
     0
 10
0.0
 20
0.0
 30
0.0
  3
*Model_Space
  1

  0
ENDBLK
  5
21
330
1F
100
AcDbEntity
  8
0
100
AcDbBlockEnd
  0
BLOCK
  5
1C
330
1B
100
AcDbEntity
 67
     1
  8
0
100
AcDbBlockBegin
  2
*Paper_Space
 70
     0
 10
0.0
 20
0.0
 30
0.0
  3
*Paper_Space
  1

  0
ENDBLK
  5
1D
330
1B
100
AcDbEntity
 67
     1
  8
0
100
AcDbBlockEnd
  0
BLOCK
  5
24
330
23
100
AcDbEntity
  8
0
100
AcDbBlockBegin
  2
*Paper_Space0
 70
     0
 10
0.0
 20
0.0
 30
0.0
  3
*Paper_Space0
  1

  0
ENDBLK
  5
25
330
23
100
AcDbEntity
  8
0
100
AcDbBlockEnd
  0
ENDSEC
  0
SECTION
  2
ENTITIES
  0
POINT
  5
50
330
1F
100
AcDbEntity
  8
A_BEMASSUNGEN
 62
     7
100
AcDbPoint
 10
1025.395439242759
 20
9.5663568306603
 30
0.0
  0
POINT
  5
51
330
1F
100
AcDbEntity
  8
A_BEMASSUNGEN
 62
     7
100
AcDbPoint
 10
1020.444727263687
 20
12.95646758700359
 30
0.0
  0
POINT
  5
52
330
1F
100
AcDbEntity
  8
A_BEMASSUNGEN
 62
     7
100
AcDbPoint
 10
993.8625439074912
 20
16.61536469099601
 30
0.0
  0
POINT
  5
53
330
1F
100
AcDbEntity
  8
A_BEMASSUNGEN
 62
     7
100
AcDbPoint
 10
998.0329552751986
 20
17.39566530236026
 30
0.0
  0
POINT
  5
54
330
1F
100
AcDbEntity
  8
A_BEMASSUNGEN
 62
     7
100
AcDbPoint
 10
1024.615138631394
 20
13.73676819836784
 30
0.0
  0
POINT
  5
55
330
1F
100
AcDbEntity
  8
A_BEMASSUNGEN
 62
     7
100
AcDbPoint
 10
1024.615138631394
 20
13.73676819836784
 30
0.0
  0
POINT
  5
56
330
1F
100
AcDbEntity
  8
A_BEMASSUNGEN
 62
     7
100
AcDbPoint
 10
1019.893554887901
 20
-20.75414262087384
 30
0.0
  0
POINT
  5
57
330
1F
100
AcDbEntity
  8
A_BEMASSUNGEN
 62
     7
100
AcDbPoint
 10
1018.114741424546
 20
-27.70734854782495
 30
0.0
  0
POINT
  5
58
330
1F
100
AcDbEntity
  8
A_BEMASSUNGEN
 62
     7
100
AcDbPoint
 10
1004.280327627064
 20
-46.82095771950392
 30
0.0
  0
POINT
  5
59
330
1F
100
AcDbEntity
  8
A_BEMASSUNGEN
 62
     7
100
AcDbPoint
 10
1004.280327627064
 20
-46.82095771950392
 30
0.0
  0
POINT
  5
5A
330
1F
100
AcDbEntity
  8
1
 62
     3
 60
     1
100
AcDbPoint
 10
999.9329921372695
 20
14.41506053214871
 30
0.0
  0
POINT
  5
5B
330
1F
100
AcDbEntity
  8
1
 62
     3
 60
     1
100
AcDbPoint
 10
986.5522738291843
 20
16.29556627663195
 30
0.0
  0
LINE
  5
5C
330
1F
100
AcDbEntity
  8
1
  6
DOT_CENTER
 62
     2
100
AcDbLine
 10
968.1628013101326
 20
4.14765030186172
 30
0.0
 11
968.1628013101326
 21
60.14765030186169
 31
0.0
  0
LINE
  5
5D
330
1F
100
AcDbEntity
  8
DEFAULT_2
  6
Continuous
 62
     7
100
AcDbLine
 10
1025.937948080747
 20
8.58886812448325
 30
0.0
 11
1026.220447893783
 21
9.00141370455332
 31
0.0
  0
LINE
  5
5E
330
1F
100
AcDbEntity
  8
A_ACHSEN
  6
Continuous
 62
     7
100
AcDbLine
 10
998.1225318910942
 20
24.60612825836293
 30
0.0
 11
993.0375352564672
 21
17.1803078171031
 31
0.0
  0
LINE
  5
5F
330
1F
100
AcDbEntity
  8
A_RUNDUNGEN
  6
DASHED
 62
     2
100
AcDbLine
 10
1009.1033683208
 20
24.35867865936159
 30
0.0
 11
1003.265156577082
 21
20.9062814141885
 31
0.0
  0
LINE
  5
60
330
1F
100
AcDbEntity
  8
A_ACHSEN
  6
DOT_CENTER
 62
     2
100
AcDbLine
 10
996.337899897027
 20
14.9203093128243
 30
0.0
 11
994.6428445188553
 21
12.44495332328835
 31
0.0
  0
LINE
  5
61
330
1F
100
AcDbEntity
  8
A_ACHSEN
  6
DOT_CENTER
 62
     2
100
AcDbLine
 10
996.337899897027
 20
14.9203093128243
 30
0.0
 11
998.0329552751986
 21
17.39566530236026
 31
0.0
  0
LINE
  5
62
330
1F
100
AcDbEntity
  8
A_ACHSEN
  6
DOT_CENTER
 62
     2
100
AcDbLine
 10
996.337899897027
 20
14.9203093128243
 30
0.0
 11
993.8625439074912
 21
16.61536469099601
 31
0.0
  0
LINE
  5
63
330
1F
100
AcDbEntity
  8
A_ACHSEN
  6
DOT_CENTER
 62
     2
100
AcDbLine
 10
996.337899897027
 20
14.9203093128243
 30
0.0
 11
998.8132558865631
 21
13.22525393465271
 31
0.0
  0
LINE
  5
64
330
1F
100
AcDbEntity
  8
A_ACHSEN
  6
DOT_CENTER
 62
     2
100
AcDbLine
 10
1022.920083253223
 20
11.2614122088319
 30
0.0
 11
1021.225027875051
 21
8.78605621929604
 31
0.0
  0
LINE
  5
65
330
1F
100
AcDbEntity
  8
A_ACHSEN
  6
DOT_CENTER
 62
     2
100
AcDbLine
 10
1022.920083253223
 20
11.2614122088319
 30
0.0
 11
1024.615138631394
 21
13.73676819836784
 31
0.0
  0
LINE
  5
66
330
1F
100
AcDbEntity
  8
DEFAULT_2
  6
Continuous
 62
     7
100
AcDbLine
 10
1020.247785886886
 20
2.73580784739463
 30
0.0
 11
1021.387487885369
 21
-8.89250632718275
 31
0.0
  0
LINE
  5
67
330
1F
100
AcDbEntity
  8
DEFAULT_2
  6
Continuous
 62
     7
100
AcDbLine
 10
1019.104781086596
 20
-11.06612654141676
 30
0.0
 11
1015.348777300105
 21
-10.51133641421924
 31
0.0
  0
LINE
  5
68
330
1F
100
AcDbEntity
  8
DEFAULT_2
  6
HIDDEN
 62
     2
100
AcDbLine
 10
1011.643153260084
 20
17.28676003645085
 30
0.0
 11
1007.184035673568
 21
20.3402405373875
 31
0.0
  0
LINE
  5
69
330
1F
100
AcDbEntity
  8
A_ACHSEN
  6
Continuous
 62
     7
100
AcDbLine
 10
1007.184035673568
 20
20.3402405373875
 30
0.0
 11
1011.643153260084
 21
17.28676003645085
 31
0.0
  0
LINE
  5
6A
330
1F
100
AcDbEntity
  8
A_ACHSEN
  6
DOT_CENTER
 62
     2
100
AcDbLine
 10
1022.920083253223
 20
11.2614122088319
 30
0.0
 11
1020.444727263687
 21
12.95646758700359
 31
0.0
  0
LINE
  5
6B
330
1F
100
AcDbEntity
  8
A_ACHSEN
  6
DOT_CENTER
 62
     2
100
AcDbLine
 10
1022.920083253223
 20
11.2614122088319
 30
0.0
 11
1025.395439242759
 21
9.5663568306603
 31
0.0
  0
LINE
  5
6C
330
1F
100
AcDbEntity
  8
DEFAULT_2
  6
Continuous
 62
     7
100
AcDbLine
 10
1027.483725481381
 20
-9.58108294310746
 30
0.0
 11
1025.767807983546
 21
7.92632494778939
 31
0.0
  0
LINE
  5
6D
330
1F
100
AcDbEntity
  8
A_RUNDUNGEN
  6
Continuous
 62
     7
100
AcDbLine
 10
1006.463076608352
 20
26.16667746278462
 30
0.0
 11
1021.878564335454
 21
15.61057745558475
 31
0.0
  0
LINE
  5
6E
330
1F
100
AcDbEntity
  8
DEFAULT_2
  6
Continuous
 62
     7
100
AcDbLine
 10
1009.237337870939
 20
-15.6737300551245
 30
0.0
 11
1019.494251685482
 21
-17.18875369267467
 31
0.0
  0
LINE
  5
6F
330
1F
100
AcDbEntity
  8
A_RUNDUNGEN
  6
DASHED
 62
     2
100
AcDbLine
 10
1021.023832850666
 20
-17.24552289202557
 30
0.0
 11
1021.573650892123
 21
-16.85116564772851
 31
0.0
  0
LINE
  5
70
330
1F
100
AcDbEntity
  8
0
  6
DASHED
 62
     2
100
AcDbLine
 10
1020.678480803413
 20
16.43236149547247
 30
0.0
 11
1011.598266745843
 21
19.98172063091606
 31
0.0
  0
LINE
  5
71
330
1F
100
AcDbEntity
  8
0
  6
DASHED
 62
     2
100
AcDbLine
 10
1020.813253154814
 20
-3.03362228053102
 30
0.0
 11
1023.515907041536
 21
-7.59447194745723
 31
0.0
  0
LINE
  5
72
330
1F
100
AcDbEntity
  8
0
  6
DASHED
 62
     2
100
AcDbLine
 10
1026.769789890482
 20
-2.29683902493132
 30
0.0
 11
1022.881766502137
 21
4.26437484816388
 31
0.0
  0
LINE
  5
73
330
1F
100
AcDbEntity
  8
0
  6
Continuous
 62
     7
100
AcDbLine
 10
1001.982294229166
 20
16.13299041938251
 30
0.0
 11
1001.960638908387
 21
16.11567224153415
 31
0.0
  0
LINE
  5
74
330
1F
100
AcDbEntity
  8
A_RUNDUNGEN
  6
Continuous
 62
     7
100
AcDbLine
 10
1001.982294229166
 20
16.13299041938251
 30
0.0
 11
1005.666513683631
 21
19.07933179624343
 31
0.0
  0
LINE
  5
75
330
1F
100
AcDbEntity
  8
0
  6
Continuous
 62
     7
100
AcDbLine
 10
1024.376339837323
 20
14.9869077142757
 30
0.0
 11
1020.678480803413
 21
16.43236149547247
 31
0.0
  0
LINE
  5
76
330
1F
100
AcDbEntity
  8
A_RUNDUNGEN
  6
Continuous
 62
     7
100
AcDbLine
 10
1007.219889326658
 20
10.09749017577009
 30
0.0
 11
1010.688939334744
 21
13.40679929753319
 31
0.0
  0
LINE
  5
77
330
1F
100
AcDbEntity
  8
A_RUNDUNGEN
  6
Continuous
 62
     7
100
AcDbLine
 10
1003.959545249944
 20
16.43378669766939
 30
0.0
 11
1009.521834233795
 21
14.25954707133586
 31
0.0
  0
LINE
  5
78
330
1F
100
AcDbEntity
  8
A_ACHSEN
  6
CENTER
 62
     2
100
AcDbLine
 10
1015.527545192748
 20
-23.34133885267218
 30
0.0
 11
1012.940348960949
 21
-18.97532915751953
 31
0.0
  0
LINE
  5
79
330
1F
100
AcDbEntity
  8
A_ACHSEN
  6
CENTER
 62
     2
100
AcDbLine
 10
1015.527545192748
 20
-23.34133885267218
 30
0.0
 11
1018.114741424546
 21
-27.70734854782495
 31
0.0
  0
LINE
  5
7A
330
1F
100
AcDbEntity
  8
0
  6
DASHED
 62
     2
100
AcDbLine
 10
1023.582776734001
 20
7.00455452380977
 30
0.0
 11
1024.959252697004
 21
7.82022230132256
 31
0.0
  0
LINE
  5
7B
330
1F
100
AcDbEntity
  8
0
  6
Continuous
 62
     7
100
AcDbLine
 10
1015.871857200931
 20
9.29917832561485
 30
0.0
 11
1016.513908722419
 21
5.0787237584446
 31
0.0
  0
LINE
  5
7C
330
1F
100
AcDbEntity
  8
0
  6
Continuous
 62
     7
100
AcDbLine
 10
1017.283876923367
 20
2.9223584274443
 30
0.0
 11
1020.813253154814
 21
-3.03362228053102
 31
0.0
  0
LINE
  5
7D
330
1F
100
AcDbEntity
  8
0
  6
Continuous
 62
     7
100
AcDbLine
 10
1013.516581373498
 20
13.34016221966673
 30
0.0
 11
1014.281522813821
 21
12.53829693237484
 31
0.0
  0
LINE
  5
7E
330
1F
100
AcDbEntity
  8
0
  6
Continuous
 62
     7
100
AcDbLine
 10
1027.979690111592
 20
-4.33859992061005
 30
0.0
 11
1026.769789890482
 21
-2.29683902493132
 31
0.0
  0
LINE
  5
7F
330
1F
100
AcDbEntity
  8
0
  6
Continuous
 62
     7
100
AcDbLine
 10
1030.137067726225
 20
-9.50864539177567
 30
0.0
 11
1027.979690111592
 21
-4.33859992061005
 31
0.0
  0
LINE
  5
80
330
1F
100
AcDbEntity
  8
0
  6
Continuous
 62
     7
100
AcDbLine
 10
1019.697575150412
 20
-18.19678184037479
 30
0.0
 11
1018.570550912417
 21
-19.00514049586512
 31
0.0
  0
LINE
  5
81
330
1F
100
AcDbEntity
  8
A_RUNDUNGEN
  6
Continuous
 62
     7
100
AcDbLine
 10
1019.697575150412
 20
-18.19678184037479
 30
0.0
 11
1021.023832850666
 21
-17.24552289202557
 31
0.0
  0
LINE
  5
82
330
1F
100
AcDbEntity
  8
A_ACHSEN
  6
CENTER
 62
     2
100
AcDbLine
 10
1015.527545192748
 20
-23.34133885267218
 30
0.0
 11
1011.161535497595
 21
-25.92853508447053
 31
0.0
  0
LINE
  5
83
330
1F
100
AcDbEntity
  8
A_ACHSEN
  6
CENTER
 62
     2
100
AcDbLine
 10
1015.527545192748
 20
-23.34133885267218
 30
0.0
 11
1019.893554887901
 21
-20.75414262087384
 31
0.0
  0
LINE
  5
84
330
1F
100
AcDbEntity
  8
A_RUNDUNGEN
  6
Continuous
 62
     7
100
AcDbLine
 10
1019.697575150412
 20
-18.19678184037479
 30
0.0
 11
1028.78253532906
 21
-17.29798867539286
 31
0.0
  0
LINE
  5
85
330
1F
100
AcDbEntity
  8
A_ACHSEN
  6
Continuous
 62
     7
100
AcDbLine
 10
1018.004582521588
 20
-26.79485677959257
 30
0.0
 11
1027.076687998214
 21
-20.28788493434832
 31
0.0
  0
LINE
  5
86
330
1F
100
AcDbEntity
  8
A_RUNDUNGEN
  6
Continuous
 62
     7
100
AcDbLine
 10
1019.964904431062
 20
-11.0052778063308
 30
0.0
 11
1019.78058434601
 21
-10.82095772127123
 31
0.0
  0
LINE
  5
87
330
1F
100
AcDbEntity
  8
A_RUNDUNGEN
  6
DASHED
 62
     2
100
AcDbLine
 10
1023.580270717356
 20
-14.62064409278059
 30
0.0
 11
1019.964904431062
 21
-11.0052778063308
 31
0.0
  0
LINE
  5
88
330
1F
100
AcDbEntity
  8
A_RUNDUNGEN
  6
DASHED
 62
     2
100
AcDbLine
 10
1030.369228533883
 20
-15.8209577213689
 30
0.0
 11
1025.816118251856
 21
-15.82095772132148
 31
0.0
  0
LINE
  5
89
330
1F
100
AcDbEntity
  8
A_RUNDUNGEN
  6
DASHED
 62
     2
100
AcDbLine
 10
1028.673678468398
 20
-18.82095772135033
 30
0.0
 11
1023.965394497781
 21
-18.82095772136096
 31
0.0
  0
LINE
  5
8A
330
1F
100
AcDbEntity
  8
A_RUNDUNGEN
  6
Continuous
 62
     7
100
AcDbLine
 10
1021.569246954421
 20
-24.23809956794558
 30
0.0
 11
1017.353072134799
 21
-38.02858601657203
 31
0.0
  0
LINE
  5
8B
330
1F
100
AcDbEntity
  8
A_RUNDUNGEN
  6
DASHED
 62
     2
100
AcDbLine
 10
1020.442550041891
 20
-17.66244825522072
 30
0.0
 11
1021.205583736615
 21
-15.16667749688258
 31
0.0
  0
LINE
  5
8C
330
1F
100
AcDbEntity
  8
A_RUNDUNGEN
  6
DASHED
 62
     2
100
AcDbLine
 10
1017.56623659247
 20
-27.07044563268345
 30
0.0
 11
1020.442550041891
 21
-17.66244825522072
 31
0.0
  0
LINE
  5
8D
330
1F
100
AcDbEntity
  8
A_RUNDUNGEN
  6
Continuous
 62
     7
100
AcDbLine
 10
1011.77176659837
 20
-25.33046608591724
 30
0.0
 11
1008.110647344935
 21
-37.30544758235763
 31
0.0
  0
LINE
  5
8E
330
1F
100
AcDbEntity
  8
A_RUNDUNGEN
  6
DASHED
 62
     2
100
AcDbLine
 10
1013.526169456783
 20
-19.59207290271354
 30
0.0
 11
1011.77176659837
 21
-25.33046608591724
 31
0.0
  0
LINE
  5
8F
330
1F
100
AcDbEntity
  8
A_RUNDUNGEN
  6
Continuous
 62
     7
100
AcDbLine
 10
1014.487056457686
 20
-16.44915313980817
 30
0.0
 11
1013.526169456783
 21
-19.59207290271354
 31
0.0
  0
LINE
  5
90
330
1F
100
AcDbEntity
  8
0
  6
DASHED
 62
     2
100
AcDbLine
 10
1017.444955196312
 20
-10.82095772127123
 30
0.0
 11
1014.380584345989
 21
-10.82095772127123
 31
0.0
  0
LINE
  5
91
330
1F
100
AcDbEntity
  8
0
  6
Continuous
 62
     7
100
AcDbLine
 10
1014.380584346046
 20
-10.0856387624247
 30
0.0
 11
1014.380584346067
 21
-9.82095772124901
 31
0.0
  0
LINE
  5
92
330
1F
100
AcDbEntity
  8
A_RUNDUNGEN
  6
Continuous
 62
     7
100
AcDbLine
 10
1013.896291118435
 20
-39.07429639592567
 30
0.0
 11
1017.56623659247
 21
-27.07044563268345
 31
0.0
  0
LINE
  5
93
330
1F
100
AcDbEntity
  8
1
  6
DOT_CENTER
 62
     2
100
AcDbLine
 10
1019.030015841685
 20
-11.93622099309059
 30
0.0
 11
1010.314377085314
 21
-40.44379084055895
 31
0.0
  0
LINE
  5
94
330
1F
100
AcDbEntity
  8
1
  6
Continuous
 62
     7
100
AcDbLine
 10
1036.380245208708
 20
-15.82113489212639
 30
0.0
 11
1036.379865029383
 21
-72.68502377974477
 31
0.0
  0
LINE
  5
95
330
1F
100
AcDbEntity
  8
1
  6
Continuous
 62
     7
100
AcDbLine
 10
1036.380245208708
 20
-15.82113489212639
 30
0.0
 11
1032.780584345811
 21
-15.82111082559385
 31
0.0
  0
LINE
  5
96
330
1F
100
AcDbEntity
  8
1
  6
Continuous
 62
     7
100
AcDbLine
 10
1004.280327627385
 20
-2.8209202789204
 30
0.0
 11
996.3803321247124
 21
-2.82086746130611
 31
0.0
  0
LINE
  5
97
330
1F
100
AcDbEntity
  8
1
  6
Continuous
 62
     7
100
AcDbLine
 10
996.3803321247124
 20
-2.82086746130611
 30
0.0
 11
996.3798650302772
 21
-72.68475634863388
 31
0.0
  0
LINE
  5
98
330
1F
100
AcDbEntity
  8
1
  6
PHANTOM
 62
     2
100
AcDbLine
 10
1036.379865029383
 20
-72.68502377974477
 30
0.0
 11
1040.168697116951
 21
-72.68504911103417
 31
0.0
  0
LINE
  5
99
330
1F
100
AcDbEntity
  8
1
  6
PHANTOM
 62
     2
100
AcDbLine
 10
996.3798650302772
 20
-72.68475634863388
 30
0.0
 11
993.5128841113731
 21
-72.68473718063674
 31
0.0
  0
LINE
  5
9A
330
1F
100
AcDbEntity
  8
1
  6
PHANTOM
 62
     2
100
AcDbLine
 10
1036.379865029383
 20
-72.68502377974477
 30
0.0
 11
996.3798650302772
 21
-72.68475634863388
 31
0.0
  0
LINE
  5
9B
330
1F
100
AcDbEntity
  8
0
  6
Continuous
 62
     7
100
AcDbLine
 10
1006.080584345859
 20
-40.32095772117545
 30
0.0
 11
1007.23528488423
 21
-42.32095772119114
 31
0.0
  0
LINE
  5
9C
330
1F
100
AcDbEntity
  8
0
  6
Continuous
 62
     7
100
AcDbLine
 10
1031.780327626801
 20
-47.82095771971516
 30
0.0
 11
1005.280327627008
 21
-47.82095771950399
 31
0.0
  0
LINE
  5
9D
330
1F
100
AcDbEntity
  8
0
  6
Continuous
 62
     7
100
AcDbLine
 10
1031.280327626745
 20
-45.82095771968153
 30
0.0
 11
1005.980327627079
 21
-45.82095771950407
 31
0.0
  0
LINE
  5
9E
330
1F
100
AcDbEntity
  8
A_RUNDUNGEN
  6
Continuous
 62
     7
100
AcDbLine
 10
1008.774580396177
 20
-38.5541240429948
 30
0.0
 11
1012.647614657798
 21
-39.73822944716722
 31
0.0
  0
LINE
  5
9F
330
1F
100
AcDbEntity
  8
0
  6
Continuous
 62
     7
100
AcDbLine
 10
1007.23528488423
 20
-42.32095772119114
 30
0.0
 11
1031.080584345662
 21
-42.32095772136428
 31
0.0
  0
LINE
  5
A0
330
1F
100
AcDbEntity
  8
A_RUNDUNGEN
  6
Continuous
 62
     7
100
AcDbLine
 10
1018.309376890711
 20
-39.32095772124206
 30
0.0
 11
1027.080584345706
 21
-39.32095772138553
 31
0.0
  0
LINE
  5
A1
330
1F
100
AcDbEntity
  8
0
  6
Continuous
 62
     7
100
AcDbLine
 10
1031.280327626867
 20
-37.82095771970286
 30
0.0
 11
1032.780624324601
 21
-37.8209577196691
 31
0.0
  0
LINE
  5
A2
330
1F
100
AcDbEntity
  8
0
  6
Continuous
 62
     7
100
AcDbLine
 10
1031.080584345629
 20
-36.32095772143007
 30
0.0
 11
1032.780624324613
 21
-36.32095772135232
 31
0.0
  0
LINE
  5
A3
330
1F
100
AcDbEntity
  8
A_RUNDUNGEN
  6
DASHED
 62
     2
100
AcDbLine
 10
1024.048351298864
 20
-15.08872467430821
 30
0.0
 11
1023.580270717356
 21
-14.62064409278059
 31
0.0
  0
LINE
  5
A4
330
1F
100
AcDbEntity
  8
A_RUNDUNGEN
  6
Continuous
 62
     7
100
AcDbLine
 10
1028.373477564508
 20
-34.7854238153815
 30
0.0
 11
1029.487691126916
 21
-33.67121025304067
 31
0.0
  0
LINE
  5
A5
330
1F
100
AcDbEntity
  8
0
  6
Continuous
 62
     7
100
AcDbLine
 10
1006.080584346004
 20
-19.82095772131717
 30
0.0
 11
1004.280327627263
 21
-19.82095771950048
 31
0.0
  0
LINE
  5
A6
330
1F
100
AcDbEntity
  8
A_RUNDUNGEN
  6
Continuous
 62
     7
100
AcDbLine
 10
1028.780584345789
 20
-18.82095772135009
 30
0.0
 11
1028.673678468398
 21
-18.82095772135033
 31
0.0
  0
LINE
  5
A7
330
1F
100
AcDbEntity
  8
0
  6
Continuous
 62
     7
100
AcDbLine
 10
1004.380584346088
 20
-16.32095772121637
 30
0.0
 11
1006.080584346026
 21
-16.32095772123885
 31
0.0
  0
LINE
  5
A8
330
1F
100
AcDbEntity
  8
A_RUNDUNGEN
  6
Continuous
 62
     7
100
AcDbLine
 10
1032.780584345812
 20
-15.82095772139402
 30
0.0
 11
1030.369228533883
 21
-15.8209577213689
 31
0.0
  0
LINE
  5
A9
330
1F
100
AcDbEntity
  8
A_RUNDUNGEN
  6
DASHED
 62
     2
100
AcDbLine
 10
1020.541650685383
 20
-13.91800103626087
 30
0.0
 11
1016.668616423762
 21
-12.73389563208824
 31
0.0
  0
LINE
  5
AA
330
1F
100
AcDbEntity
  8
DEFAULT_1
  6
CENTER_3
 62
     2
100
AcDbLine
 10
1009.8802752953
 20
-11.32095771911638
 30
0.0
 11
1015.420275295076
 21
-11.32099475832516
 31
0.0
  0
LINE
  5
AB
330
1F
100
AcDbEntity
  8
A_ACHSEN
  6
CENTER_3
 62
     2
100
AcDbLine
 10
1009.8805787311
 20
-11.32095772114506
 30
0.0
 11
1004.880478731167
 21
-11.32093766314313
 31
0.0
  0
LINE
  5
AC
330
1F
100
AcDbEntity
  8
0
  6
Continuous
 62
     7
100
AcDbLine
 10
1019.78058434601
 20
-10.82095772127123
 30
0.0
 11
1017.444955196312
 21
-10.82095772127123
 31
0.0
  0
LINE
  5
AD
330
1F
100
AcDbEntity
  8
0
  6
Continuous
 62
     7
100
AcDbLine
 10
1011.380584346133
 20
-6.82095772124854
 30
0.0
 11
1004.380584346177
 21
-6.82095772120414
 31
0.0
  0
LINE
  5
AE
330
1F
100
AcDbEntity
  8
0
  6
Continuous
 62
     7
100
AcDbLine
 10
1010.880368055451
 20
-3.82095838834663
 30
0.0
 11
1004.280327627408
 21
-3.82095772015823
 31
0.0
  0
LINE
  5
AF
330
1F
100
AcDbEntity
  8
A_RUNDUNGEN
  6
Continuous
 62
     7
100
AcDbLine
 10
1032.780624324601
 20
-37.8209577196691
 30
0.0
 11
1032.780624324613
 21
-36.32095772135232
 31
0.0
  0
LINE
  5
B0
330
1F
100
AcDbEntity
  8
0
  6
Continuous
 62
     7
100
AcDbLine
 10
1032.780584345667
 20
-36.32095772135217
 30
0.0
 11
1032.780584345811
 21
-15.82111082559385
 31
0.0
  0
LINE
  5
B1
330
1F
100
AcDbEntity
  8
0
  6
Continuous
 62
     7
100
AcDbLine
 10
1032.7803276268
 20
-48.32095772139411
 30
0.0
 11
1032.7803276268
 21
-37.82095771966942
 31
0.0
  0
LINE
  5
B2
330
1F
100
AcDbEntity
  8
0
  6
Continuous
 62
     7
100
AcDbLine
 10
1031.280327626745
 20
-45.82095771968153
 30
0.0
 11
1031.280327626867
 21
-37.82095771970286
 31
0.0
  0
LINE
  5
B3
330
1F
100
AcDbEntity
  8
0
  6
Continuous
 62
     7
100
AcDbLine
 10
1031.080584345662
 20
-42.32095772136428
 30
0.0
 11
1031.080584345629
 21
-36.32095772143007
 31
0.0
  0
LINE
  5
B4
330
1F
100
AcDbEntity
  8
A_RUNDUNGEN
  6
Continuous
 62
     7
100
AcDbLine
 10
1029.780584345682
 20
-32.96410347184363
 30
0.0
 11
1029.780584345833
 21
-19.82095772135033
 31
0.0
  0
LINE
  5
B5
330
1F
100
AcDbEntity
  8
A_RUNDUNGEN
  6
Continuous
 62
     7
100
AcDbLine
 10
1028.080584345707
 20
-38.32095772134151
 30
0.0
 11
1028.080584345742
 21
-35.49253059657789
 31
0.0
  0
LINE
  5
B6
330
1F
100
AcDbEntity
  8
0
  6
Continuous
 62
     7
100
AcDbLine
 10
1004.280327627385
 20
-2.82095771942079
 30
0.0
 11
1010.880327627329
 21
-2.82095838805408
 31
0.0
  0
LINE
  5
B7
330
1F
100
AcDbEntity
  8
A_RUNDUNGEN
  6
DASHED
 62
     2
100
AcDbLine
 10
1023.009089741814
 20
-19.52858601663547
 30
0.0
 11
1021.569246954421
 21
-24.23809956794558
 31
0.0
  0
LINE
  5
B8
330
1F
100
AcDbEntity
  8
0
  6
Continuous
 62
     7
100
AcDbLine
 10
1010.880327627284
 20
-3.07095838805968
 30
0.0
 11
1007.98128952169
 21
-3.82095771945187
 31
0.0
  0
LINE
  5
B9
330
1F
100
AcDbEntity
  8
0
  6
DASHED
 62
     2
100
AcDbLine
 10
1014.380584345989
 20
-10.82095772127123
 30
0.0
 11
1014.380584346046
 21
-10.0856387624247
 31
0.0
  0
LINE
  5
BA
330
1F
100
AcDbEntity
  8
A_RUNDUNGEN
  6
DASHED
 62
     2
100
AcDbLine
 10
1015.419939963159
 20
-13.39782868325074
 30
0.0
 11
1014.487056457686
 21
-16.44915313980817
 31
0.0
  0
LINE
  5
BB
330
1F
100
AcDbEntity
  8
0
  6
Continuous
 62
     7
100
AcDbLine
 10
1010.880327627329
 20
-2.82095838805408
 30
0.0
 11
1010.880624325018
 21
-6.82095838982691
 31
0.0
  0
LINE
  5
BC
330
1F
100
AcDbEntity
  8
DEFAULT_1
  6
CENTER_3
 62
     2
100
AcDbLine
 10
1009.8806135442
 20
-11.3209577213778
 30
0.0
 11
1009.880576504991
 21
-16.86095772125391
 31
0.0
  0
LINE
  5
BD
330
1F
100
AcDbEntity
  8
DEFAULT_1
  6
CENTER_3
 62
     2
100
AcDbLine
 10
1009.8806135442
 20
-11.3209577213778
 30
0.0
 11
1009.880650583408
 21
-5.78095772160155
 31
0.0
  0
LINE
  5
BE
330
1F
100
AcDbEntity
  8
0
  6
Continuous
 62
     7
100
AcDbLine
 10
1006.080584346026
 20
-16.32095772123885
 30
0.0
 11
1006.080584345859
 21
-40.32095772117545
 31
0.0
  0
LINE
  5
BF
330
1F
100
AcDbEntity
  8
0
  6
Continuous
 62
     7
100
AcDbLine
 10
1005.980327627079
 20
-45.82095771950407
 30
0.0
 11
1005.980327627201
 21
-19.82095771952297
 31
0.0
  0
LINE
  5
C0
330
1F
100
AcDbEntity
  8
0
  6
Continuous
 62
     7
100
AcDbLine
 10
1004.380584346177
 20
-6.82095772120414
 30
0.0
 11
1004.380584346088
 21
-16.32095772121637
 31
0.0
  0
LINE
  5
C1
330
1F
100
AcDbEntity
  8
0
  6
Continuous
 62
     7
100
AcDbLine
 10
1004.280327627385
 20
-2.8209202789204
 30
0.0
 11
1004.280327627408
 21
-3.82095772015823
 31
0.0
  0
LINE
  5
C2
330
1F
100
AcDbEntity
  8
0
  6
Continuous
 62
     7
100
AcDbLine
 10
1004.280327627053
 20
-48.3209577210969
 30
0.0
 11
1004.280327627263
 21
-19.82095771950048
 31
0.0
  0
LINE
  5
C3
330
1F
100
AcDbEntity
  8
0
  6
Continuous
 62
     7
100
AcDbLine
 10
1004.900176296977
 20
-19.82095772147101
 30
0.0
 11
1004.900366835899
 21
-16.32095772116663
 31
0.0
  0
LINE
  5
C4
330
1F
100
AcDbEntity
  8
0
  6
Continuous
 62
     7
100
AcDbLine
 10
1004.900884012888
 20
-6.82095772121226
 30
0.0
 11
1004.901047331921
 21
-3.82095772143705
 31
0.0
  0
LINE
  5
C5
330
1F
100
AcDbEntity
  8
0
  6
Continuous
 62
     7
100
AcDbLine
 10
1032.780584345811
 20
-15.82111082559385
 30
0.0
 11
1032.780584345812
 21
-15.82095772139402
 31
0.0
  0
LINE
  5
C6
330
1F
100
AcDbEntity
  8
1
  6
Continuous
 62
     7
100
AcDbLine
 10
1032.7803276268
 20
-48.32095772139411
 30
0.0
 11
1004.280327627053
 21
-48.3209577210969
 31
0.0
  0
LINE
  5
C7
330
1F
100
AcDbEntity
  8
1
  6
Continuous
 62
     7
100
AcDbLine
 10
1004.280327627263
 20
-19.82095771950048
 30
0.0
 11
1004.280434599708
 21
-3.82095772015819
 31
0.0
  0
LINE
  5
C8
330
1F
100
AcDbEntity
  8
0
  6
Continuous
 62
     7
100
AcDbLine
 10
1004.280434599708
 20
-3.82095772015819
 30
0.0
 11
1004.280327627408
 21
-3.82095771944309
 31
0.0
  0
LINE
  5
C9
330
1F
100
AcDbEntity
  8
0
  6
Continuous
 62
     7
100
AcDbLine
 10
993.8237021580115
 20
18.32837824216012
 30
0.0
 11
988.6129808939327
 21
19.06068506176169
 31
0.0
  0
LINE
  5
CA
330
1F
100
AcDbEntity
  8
0
  6
DASHED
 62
     2
100
AcDbLine
 10
994.490428520577
 20
18.23467753598712
 30
0.0
 11
994.1754955233887
 21
18.2789377391088
 31
0.0
  0
LINE
  5
CB
330
1F
100
AcDbEntity
  8
0
  6
DASHED
 62
     2
100
AcDbLine
 10
999.5463705686798
 20
26.07023481528891
 30
0.0
 11
999.8618795578327
 21
23.82530940076177
 31
0.0
  0
LINE
  5
CC
330
1F
100
AcDbEntity
  8
0
  6
Continuous
 62
     7
100
AcDbLine
 10
996.5805511087686
 20
22.35431311743447
 30
0.0
 11
992.5628937426584
 21
21.78965871685127
 31
0.0
  0
LINE
  5
CD
330
1F
100
AcDbEntity
  8
A_RUNDUNGEN
  6
Continuous
 62
     7
100
AcDbLine
 10
1015.955757633486
 20
8.74766812446478
 30
0.0
 11
1005.508840971733
 21
8.74764394946172
 31
0.0
  0
LINE
  5
CE
330
1F
100
AcDbEntity
  8
1
  6
Continuous
 62
     7
100
AcDbLine
 10
1016.362801310133
 20
19.38761955389851
 30
0.0
 11
1016.362801310133
 21
19.3292350525141
 31
0.0
  0
LINE
  5
CF
330
1F
100
AcDbEntity
  8
1
  6
DASHED
 62
     2
100
AcDbLine
 10
1018.162801310133
 20
18.15502929471693
 30
0.0
 11
1018.162801310133
 21
7.64766297321094
 31
0.0
  0
LINE
  5
D0
330
1F
100
AcDbEntity
  8
1
  6
Continuous
 62
     7
100
AcDbLine
 10
1016.362801310133
 20
31.54766906622362
 30
0.0
 11
1016.362801310133
 21
19.38761955389851
 31
0.0
  0
LINE
  5
D1
330
1F
100
AcDbEntity
  8
A_RUNDUNGEN
  6
Continuous
 62
     7
100
AcDbLine
 10
1016.12310220221
 20
7.64764713592163
 30
0.0
 11
1011.162801310133
 21
7.64760862155449
 31
0.0
  0
LINE
  5
D2
330
1F
100
AcDbEntity
  8
1
  6
Continuous
 62
     7
100
AcDbLine
 10
1016.732657668884
 20
4.14765030186172
 30
0.0
 11
1011.162801310133
 21
4.14765030186172
 31
0.0
  0
LINE
  5
D3
330
1F
100
AcDbEntity
  8
1
  6
Continuous
 62
     7
100
AcDbLine
 10
1018.162801310133
 20
34.14765030186172
 30
0.0
 11
1031.162801310133
 21
34.14765030186172
 31
0.0
  0
LINE
  5
D4
330
1F
100
AcDbEntity
  8
1
  6
Continuous
 62
     7
100
AcDbLine
 10
1031.162801310133
 20
34.14765030186172
 30
0.0
 11
1031.162801310133
 21
60.14765030186169
 31
0.0
  0
LINE
  5
D5
330
1F
100
AcDbEntity
  8
1
  6
Continuous
 62
     7
100
AcDbLine
 10
968.1628013101326
 20
60.14765030186169
 30
0.0
 11
1031.162801310133
 21
60.14765030186169
 31
0.0
  0
LINE
  5
D6
330
1F
100
AcDbEntity
  8
1
  6
DASHED
 62
     2
100
AcDbLine
 10
1018.162801310133
 20
7.64766297321094
 30
0.0
 11
1018.162801310133
 21
4.14765030186172
 31
0.0
  0
LINE
  5
D7
330
1F
100
AcDbEntity
  8
1
  6
DOT_CENTER
 62
     2
100
AcDbLine
 10
986.5522738291843
 20
16.29556627663195
 30
0.0
 11
999.9329921372695
 21
14.41506053214871
 31
0.0
  0
LINE
  5
D8
330
1F
100
AcDbEntity
  8
A_RUNDUNGEN
  6
Continuous
 62
     7
100
AcDbLine
 10
1000.862759656638
 20
30.6476503018617
 30
0.0
 11
1000.862758731033
 21
31.04763319786176
 31
0.0
  0
LINE
  5
D9
330
1F
100
AcDbEntity
  8
A_RUNDUNGEN
  6
Continuous
 62
     7
100
AcDbLine
 10
990.7647927227564
 20
30.14760983033734
 30
0.0
 11
1000.862760813733
 21
30.14763319786172
 31
0.0
  0
LINE
  5
DA
330
1F
100
AcDbEntity
  8
A_RUNDUNGEN
  6
Continuous
 62
     7
100
AcDbLine
 10
989.362762796232
 20
29.29089348878094
 30
0.0
 11
989.3627619707327
 21
29.64760658596177
 31
0.0
  0
LINE
  5
DB
330
1F
100
AcDbEntity
  8
A_RUNDUNGEN
  6
Continuous
 62
     7
100
AcDbLine
 10
988.5887689747182
 20
28.53071973139591
 30
0.0
 11
988.9323509940327
 21
28.57900784596174
 31
0.0
  0
LINE
  5
DC
330
1F
100
AcDbEntity
  8
1
  6
Continuous
 62
     7
100
AcDbLine
 10
1018.162801310133
 20
18.69034783277049
 30
0.0
 11
1018.162801310133
 21
18.15502929471693
 31
0.0
  0
LINE
  5
DD
330
1F
100
AcDbEntity
  8
1
  6
DASHED
 62
     2
100
AcDbLine
 10
1016.362801310133
 20
19.3292350525141
 30
0.0
 11
1016.362801310133
 21
7.6476543915617
 31
0.0
  0
LINE
  5
DE
330
1F
100
AcDbEntity
  8
0
  6
DASHED
 62
     2
100
AcDbLine
 10
999.7740997754386
 20
15.84523515764515
 30
0.0
 11
999.8618965787327
 21
16.46995236296172
 31
0.0
  0
LINE
  5
DF
330
1F
100
AcDbEntity
  8
0
  6
DASHED
 62
     2
100
AcDbLine
 10
994.1754955233887
 20
18.2789377391088
 30
0.0
 11
993.8237021580115
 21
18.32837824216012
 31
0.0
  0
LINE
  5
E0
330
1F
100
AcDbEntity
  8
0
  6
DASHED
 62
     2
100
AcDbLine
 10
993.3334202572955
 20
12.28782688593373
 30
0.0
 11
998.1688156004002
 21
11.60826779873126
 31
0.0
  0
LINE
  5
E1
330
1F
100
AcDbEntity
  8
0
  6
Continuous
 62
     7
100
AcDbLine
 10
988.1501877957124
 20
13.01627047129113
 30
0.0
 11
993.3334202572955
 21
12.28782688593373
 31
0.0
  0
LINE
  5
E2
330
1F
100
AcDbEntity
  8
0
  6
Continuous
 62
     7
100
AcDbLine
 10
987.1628013101326
 20
15.92736274570753
 30
0.0
 11
986.9198999157327
 21
14.19900049776172
 31
0.0
  0
LINE
  5
E3
330
1F
100
AcDbEntity
  8
0
  6
Continuous
 62
     7
100
AcDbLine
 10
992.5628937426584
 20
21.78965871685127
 30
0.0
 11
988.6129758635327
 21
21.23452464016171
 31
0.0
  0
LINE
  5
E4
330
1F
100
AcDbEntity
  8
0
  6
Continuous
 62
     7
100
AcDbLine
 10
999.5214360294445
 20
26.24765030186171
 30
0.0
 11
999.5463705686798
 21
26.07023481528891
 31
0.0
  0
LINE
  5
E5
330
1F
100
AcDbEntity
  8
0
  6
Continuous
 62
     7
100
AcDbLine
 10
987.1527851872643
 20
24.43896849068233
 30
0.0
 11
986.9198723846328
 21
26.09620136826172
 31
0.0
  0
LINE
  5
E6
330
1F
100
AcDbEntity
  8
A_RUNDUNGEN
  6
Continuous
 62
     7
100
AcDbLine
 10
1016.362801310133
 20
31.54766906622362
 30
0.0
 11
1018.162757573933
 21
31.54767323146169
 31
0.0
  0
LINE
  5
E7
330
1F
100
AcDbEntity
  8
1
  6
Continuous
 62
     7
100
AcDbLine
 10
1016.662661577233
 20
33.64765439076172
 30
0.0
 11
982.1627529454948
 21
33.64774872968589
 31
0.0
  0
LINE
  5
E8
330
1F
100
AcDbEntity
  8
1
  6
Continuous
 62
     7
100
AcDbLine
 10
1018.162801310133
 20
33.64765439076172
 30
0.0
 11
1018.162801310133
 21
33.5366534839713
 31
0.0
  0
LINE
  5
E9
330
1F
100
AcDbEntity
  8
1
  6
Continuous
 62
     7
100
AcDbLine
 10
1018.162801310133
 20
33.5366534839713
 30
0.0
 11
1018.162801310133
 21
33.64765439076172
 31
0.0
  0
LINE
  5
EA
330
1F
100
AcDbEntity
  8
1
  6
Continuous
 62
     7
100
AcDbLine
 10
1018.162801310133
 20
33.5366534839713
 30
0.0
 11
1018.162801310133
 21
31.5476732315629
 31
0.0
  0
LINE
  5
EB
330
1F
100
AcDbEntity
  8
1
  6
Continuous
 62
     7
100
AcDbLine
 10
1018.162801310133
 20
33.5366534839713
 30
0.0
 11
1018.162801310133
 21
32.64765030186172
 31
0.0
  0
LINE
  5
EC
330
1F
100
AcDbEntity
  8
1
  6
Continuous
 62
     7
100
AcDbLine
 10
1018.162801310133
 20
34.14765030186172
 30
0.0
 11
1018.162801310133
 21
33.64765439076172
 31
0.0
  0
LINE
  5
ED
330
1F
100
AcDbEntity
  8
1
  6
Continuous
 62
     7
100
AcDbLine
 10
1011.162801310133
 20
4.14765030186172
 30
0.0
 11
968.1628013101326
 21
4.14765030186172
 31
0.0
  0
LINE
  5
EE
330
1F
100
AcDbEntity
  8
1
  6
Continuous
 62
     7
100
AcDbLine
 10
1011.162801310133
 20
4.14765030186172
 30
0.0
 11
968.1628013101326
 21
4.14765030186172
 31
0.0
  0
LINE
  5
EF
330
1F
100
AcDbEntity
  8
1
  6
Continuous
 62
     7
100
AcDbLine
 10
1011.162801310133
 20
7.64760862155449
 30
0.0
 11
1011.162801310133
 21
4.14765030186172
 31
0.0
  0
LINE
  5
F0
330
1F
100
AcDbEntity
  8
1
  6
Continuous
 62
     7
100
AcDbLine
 10
982.1628128802532
 20
7.6477487298038
 30
0.0
 11
1011.162801310133
 21
7.64760862155449
 31
0.0
  0
LINE
  5
F1
330
1F
100
AcDbEntity
  8
1
  6
Continuous
 62
     7
100
AcDbLine
 10
982.1627529454948
 20
33.64774872968589
 30
0.0
 11
982.1628128802532
 21
7.6477487298038
 31
0.0
  0
LINE
  5
F2
330
1F
100
AcDbEntity
  8
1
  6
Continuous
 62
     7
100
AcDbLine
 10
1018.162801310133
 20
33.64765439076172
 30
0.0
 11
982.1627529454948
 21
33.64774872968589
 31
0.0
  0
LINE
  5
F3
330
1F
100
AcDbEntity
  8
1
  6
Continuous
 62
     7
100
AcDbLine
 10
1011.162801310133
 20
4.14765030186172
 30
0.0
 11
968.1628013101326
 21
4.14765030186172
 31
0.0
  0
LINE
  5
F4
330
1F
100
AcDbEntity
  8
1
  6
Continuous
 62
     7
100
AcDbLine
 10
1011.162801310133
 20
7.64760862155449
 30
0.0
 11
1011.162801310133
 21
4.14765030186172
 31
0.0
  0
LINE
  5
F5
330
1F
100
AcDbEntity
  8
A_RUNDUNGEN
  6
Continuous
 62
     7
100
AcDbLine
 10
1011.162801310133
 20
7.64760862155449
 30
0.0
 11
1000.362834739033
 21
7.64756113556169
 31
0.0
  0
LINE
  5
F6
330
1F
100
AcDbEntity
  8
1
  6
Continuous
 62
     7
100
AcDbLine
 10
983.6626615780052
 20
33.64775875773504
 30
0.0
 11
982.1627529454948
 21
33.64774872968589
 31
0.0
  0
LINE
  5
F7
330
1F
100
AcDbEntity
  8
1
  6
Continuous
 62
     7
100
AcDbLine
 10
1012.662661579425
 20
33.64763962636177
 30
0.0
 11
1012.662667594533
 21
32.64795264516172
 31
0.0
  0
LINE
  5
F8
330
1F
100
AcDbEntity
  8
1
  6
Continuous
 62
     7
100
AcDbLine
 10
982.1628128802532
 20
7.6477487298038
 30
0.0
 11
983.6628347394102
 21
7.64775875863008
 31
0.0
  0
LINE
  5
F9
330
1F
100
AcDbEntity
  8
1
  6
Continuous
 62
     7
100
AcDbLine
 10
982.1627529454948
 20
33.64774872968589
 30
0.0
 11
982.1628128802532
 21
7.6477487298038
 31
0.0
  0
LINE
  5
FA
330
1F
100
AcDbEntity
  8
A_ACHSEN
  6
CENTER_1
 62
     2
100
AcDbLine
 10
1007.662801310133
 20
12.64765030186172
 30
0.0
 11
1009.687801310133
 21
12.64765030186172
 31
0.0
  0
LINE
  5
FB
330
1F
100
AcDbEntity
  8
A_ACHSEN
  6
CENTER_1
 62
     2
100
AcDbLine
 10
1007.662766598933
 20
27.64760919966173
 30
0.0
 11
1008.912766598933
 21
27.64760919966173
 31
0.0
  0
LINE
  5
FC
330
1F
100
AcDbEntity
  8
1
  6
Continuous
 62
     7
100
AcDbLine
 10
1012.662661577333
 20
33.6479526451617
 30
0.0
 11
1012.662661579425
 21
33.64763962636177
 31
0.0
  0
LINE
  5
FD
330
1F
100
AcDbEntity
  8
1
  6
Continuous
 62
     7
100
AcDbLine
 10
1010.739438081033
 20
31.94793978686172
 30
0.0
 11
1012.662667594533
 21
32.64795264516172
 31
0.0
  0
LINE
  5
FE
330
1F
100
AcDbEntity
  8
1
  6
Continuous
 62
     7
100
AcDbLine
 10
1018.162801310133
 20
33.64765439076172
 30
0.0
 11
1018.162801310133
 21
33.5366534839713
 31
0.0
  0
LINE
  5
FF
330
1F
100
AcDbEntity
  8
1
  6
Continuous
 62
     7
100
AcDbLine
 10
1018.162801310133
 20
33.64765439076172
 30
0.0
 11
1018.162801310133
 21
33.5366534839713
 31
0.0
  0
LINE
  5
100
330
1F
100
AcDbEntity
  8
1
  6
Continuous
 62
     7
100
AcDbLine
 10
1016.662661577233
 20
33.64765439076172
 30
0.0
 11
1018.162801310133
 21
33.64765439076172
 31
0.0
  0
LINE
  5
101
330
1F
100
AcDbEntity
  8
A_ACHSEN
  6
CENTER_1
 62
     2
100
AcDbLine
 10
1006.662801310555
 20
27.64760919966173
 30
0.0
 11
1007.662766598933
 21
27.64760919966173
 31
0.0
  0
LINE
  5
102
330
1F
100
AcDbEntity
  8
A_ACHSEN
  6
CENTER_1
 62
     2
100
AcDbLine
 10
1006.662801310133
 20
12.64765030186172
 30
0.0
 11
1007.662801310133
 21
12.64765030186172
 31
0.0
  0
LINE
  5
103
330
1F
100
AcDbEntity
  8
0
  6
Continuous
 62
     7
100
AcDbLine
 10
987.4835416937326
 20
18.20958748046169
 30
0.0
 11
987.1628013101326
 21
15.92736274570753
 31
0.0
  0
LINE
  5
104
330
1F
100
AcDbEntity
  8
0
  6
Continuous
 62
     7
100
AcDbLine
 10
982.6626682638009
 20
32.54775207198904
 30
0.0
 11
982.6628280536643
 21
8.64775207283939
 31
0.0
  0
LINE
  5
105
330
1F
100
AcDbEntity
  8
0
  6
Continuous
 62
     7
100
AcDbLine
 10
983.9628253793328
 20
9.04776076426177
 30
0.0
 11
983.9626722752325
 21
31.94776076356172
 31
0.0
  0
LINE
  5
106
330
1F
100
AcDbEntity
  8
0
  6
Continuous
 62
     7
100
AcDbLine
 10
984.1628227050326
 20
9.44776210146173
 30
0.0
 11
984.1626729438326
 21
31.84776210076169
 31
0.0
  0
LINE
  5
107
330
1F
100
AcDbEntity
  8
0
  6
Continuous
 62
     7
100
AcDbLine
 10
985.3626896582327
 20
29.34777012376176
 30
0.0
 11
985.3628113392326
 21
11.14777012436176
 31
0.0
  0
LINE
  5
108
330
1F
100
AcDbEntity
  8
A_RUNDUNGEN
  6
Continuous
 62
     7
100
AcDbLine
 10
985.8628014614326
 20
12.58224185576174
 30
0.0
 11
985.8627664477326
 21
27.71295511776171
 31
0.0
  0
LINE
  5
109
330
1F
100
AcDbEntity
  8
0
  6
Continuous
 62
     7
100
AcDbLine
 10
988.4626729437327
 20
31.84779084956174
 30
0.0
 11
988.4626863152328
 21
29.84779084956173
 31
0.0
  0
LINE
  5
10A
330
1F
100
AcDbEntity
  8
0
  6
Continuous
 62
     7
100
AcDbLine
 10
988.4628146820326
 20
10.64779085026171
 30
0.0
 11
988.4628227049327
 21
9.44779085026173
 31
0.0
  0
LINE
  5
10B
330
1F
100
AcDbEntity
  8
A_RUNDUNGEN
  6
Continuous
 62
     7
100
AcDbLine
 10
989.3628059383327
 20
10.64760658616174
 30
0.0
 11
989.3628046112326
 21
11.22107029586172
 31
0.0
  0
LINE
  5
10C
330
1F
100
AcDbEntity
  8
A_RUNDUNGEN
  6
Continuous
 62
     7
100
AcDbLine
 10
989.3627632978325
 20
29.07414287636172
 30
0.0
 11
989.362762796232
 21
29.29089348878094
 31
0.0
  0
LINE
  5
10D
330
1F
100
AcDbEntity
  8
0
  6
Continuous
 62
     7
100
AcDbLine
 10
990.6628233734327
 20
9.34742890326172
 30
0.0
 11
990.6628227043327
 21
9.44750975956177
 31
0.0
  0
LINE
  5
10E
330
1F
100
AcDbEntity
  8
0
  6
DASHED
 62
     2
100
AcDbLine
 10
999.2982548006328
 20
12.45936538026174
 30
0.0
 11
999.7740997754386
 21
15.84523515764515
 31
0.0
  0
LINE
  5
10F
330
1F
100
AcDbEntity
  8
0
  6
Continuous
 62
     7
100
AcDbLine
 10
998.1628233733327
 20
9.34744535646169
 30
0.0
 11
998.1628227039325
 21
9.44755990286174
 31
0.0
  0
LINE
  5
110
330
1F
100
AcDbEntity
  8
0
  6
Continuous
 62
     7
100
AcDbLine
 10
987.4835327243327
 20
22.08561699426176
 30
0.0
 11
987.1527851872643
 21
24.43896849068233
 31
0.0
  0
LINE
  5
111
330
1F
100
AcDbEntity
  8
0
  6
Continuous
 62
     7
100
AcDbLine
 10
1000.362834739033
 20
7.6478704109617
 30
0.0
 11
1000.362825379033
 21
9.04787041096174
 31
0.0
  0
LINE
  5
112
330
1F
100
AcDbEntity
  8
A_RUNDUNGEN
  6
Continuous
 62
     7
100
AcDbLine
 10
1000.862809178033
 20
9.24763319816171
 30
0.0
 11
1000.862807095333
 21
10.14763319816169
 31
0.0
  0
LINE
  5
113
330
1F
100
AcDbEntity
  8
A_RUNDUNGEN
  6
Continuous
 62
     7
100
AcDbLine
 10
1000.862760813733
 20
30.14763319786172
 30
0.0
 11
1000.862759656638
 21
30.6476503018617
 31
0.0
  0
LINE
  5
114
330
1F
100
AcDbEntity
  8
A_ACHSEN
  6
DOT_CENTER
 62
     2
100
AcDbLine
 10
1004.662766598933
 20
27.64760919966173
 30
0.0
 11
1004.662766598933
 21
24.39760919966173
 31
0.0
  0
LINE
  5
115
330
1F
100
AcDbEntity
  8
A_ACHSEN
  6
DOT_CENTER
 62
     2
100
AcDbLine
 10
1004.662766598933
 20
27.64760919966173
 30
0.0
 11
1004.662766598933
 21
30.89760919966173
 31
0.0
  0
LINE
  5
116
330
1F
100
AcDbEntity
  8
A_ACHSEN
  6
DOT_CENTER
 62
     2
100
AcDbLine
 10
1004.662801310133
 20
12.64765030186172
 30
0.0
 11
1004.662801310133
 21
8.0
 31
0.0
  0
LINE
  5
117
330
1F
100
AcDbEntity
  8
A_ACHSEN
  6
DOT_CENTER
 62
     2
100
AcDbLine
 10
1004.662801310133
 20
12.64765030186172
 30
0.0
 11
1004.662801310133
 21
17.67265030186175
 31
0.0
  0
LINE
  5
118
330
1F
100
AcDbEntity
  8
0
  6
Continuous
 62
     7
100
AcDbLine
 10
999.2982192181328
 20
27.83589377476173
 30
0.0
 11
999.5214360294445
 21
26.24765030186171
 31
0.0
  0
LINE
  5
119
330
1F
100
AcDbEntity
  8
A_RUNDUNGEN
  6
Continuous
 62
     7
100
AcDbLine
 10
1014.162674948833
 20
31.5476639749617
 30
0.0
 11
1014.162672943133
 21
31.84766687446174
 31
0.0
  0
LINE
  5
11A
330
1F
100
AcDbEntity
  8
0
  6
Continuous
 62
     7
100
AcDbLine
 10
1016.662661577233
 20
33.64765439076172
 30
0.0
 11
1016.662672943033
 21
31.84765439076174
 31
0.0
  0
LINE
  5
11B
330
1F
100
AcDbEntity
  8
0
  6
DASHED
 62
     2
100
AcDbLine
 10
1016.662827384233
 20
8.74766976066169
 30
0.0
 11
1016.662834738733
 21
7.6476543915617
 31
0.0
  0
LINE
  5
11C
330
1F
100
AcDbEntity
  8
A_RUNDUNGEN
  6
DASHED
 62
     2
100
AcDbLine
 10
1016.662827384233
 20
8.74766976066169
 30
0.0
 11
1016.662834738733
 21
7.6476543915617
 31
0.0
  0
LINE
  5
11D
330
1F
100
AcDbEntity
  8
A_RUNDUNGEN
  6
Continuous
 62
     7
100
AcDbLine
 10
1016.662674947933
 20
31.54766976016177
 30
0.0
 11
1016.662661577233
 21
33.64765439076172
 31
0.0
  0
LINE
  5
11E
330
1F
100
AcDbEntity
  8
A_RUNDUNGEN
  6
DASHED
 62
     2
100
AcDbLine
 10
1018.162801310133
 20
7.64766297321094
 30
0.0
 11
1016.12310220221
 21
7.64764713592163
 31
0.0
  0
LINE
  5
11F
330
1F
100
AcDbEntity
  8
0
  6
Continuous
 62
     7
100
AcDbLine
 10
983.6628347394102
 20
7.64775875863008
 30
0.0
 11
1000.362834739033
 21
7.6478704109617
 31
0.0
  0
LINE
  5
120
330
1F
100
AcDbEntity
  8
A_RUNDUNGEN
  6
DASHED
 62
     2
100
AcDbLine
 10
1018.162810335033
 20
8.74767323176175
 30
0.0
 11
1015.955757633486
 21
8.74766812446478
 31
0.0
  0
LINE
  5
121
330
1F
100
AcDbEntity
  8
A_RUNDUNGEN
  6
Continuous
 62
     7
100
AcDbLine
 10
1005.508840971733
 20
8.74764002266173
 30
0.0
 11
1001.362810335033
 21
8.74763435516175
 31
0.0
  0
LINE
  5
122
330
1F
100
AcDbEntity
  8
A_RUNDUNGEN
  6
Continuous
 62
     7
100
AcDbLine
 10
1000.362825379033
 20
9.04756113556172
 30
0.0
 11
1000.906680376333
 21
9.04755959756173
 31
0.0
  0
LINE
  5
123
330
1F
100
AcDbEntity
  8
0
  6
Continuous
 62
     7
100
AcDbLine
 10
1000.362825379033
 20
9.04787041096174
 30
0.0
 11
983.9628253793328
 21
9.04776076426177
 31
0.0
  0
LINE
  5
124
330
1F
100
AcDbEntity
  8
A_RUNDUNGEN
  6
Continuous
 62
     7
100
AcDbLine
 10
1000.862808509733
 20
9.34755774026169
 30
0.0
 11
983.9628233736328
 21
9.34744475086174
 31
0.0
  0
LINE
  5
125
330
1F
100
AcDbEntity
  8
A_RUNDUNGEN
  6
Continuous
 62
     7
100
AcDbLine
 10
988.4628227049327
 20
9.44750178896172
 30
0.0
 11
1000.862808715233
 21
9.44757795436172
 31
0.0
  0
LINE
  5
126
330
1F
100
AcDbEntity
  8
0
  6
Continuous
 62
     7
100
AcDbLine
 10
984.1628227050326
 20
9.44776210146173
 30
0.0
 11
988.4628227049327
 21
9.44779085026173
 31
0.0
  0
LINE
  5
127
330
1F
100
AcDbEntity
  8
A_RUNDUNGEN
  6
Continuous
 62
     7
100
AcDbLine
 10
1000.862807095333
 20
10.14763319816169
 30
0.0
 11
989.8628070953325
 21
10.14760774326172
 31
0.0
  0
LINE
  5
128
330
1F
100
AcDbEntity
  8
A_ACHSEN
  6
DOT_CENTER
 62
     2
100
AcDbLine
 10
1004.662801310133
 20
12.64765030186172
 30
0.0
 11
999.6378013101328
 21
12.64765030186172
 31
0.0
  0
LINE
  5
129
330
1F
100
AcDbEntity
  8
A_ACHSEN
  6
CENTER_1
 62
     2
100
AcDbLine
 10
1004.662801310133
 20
12.64765030186172
 30
0.0
 11
1006.662801310133
 21
12.64765030186172
 31
0.0
  0
LINE
  5
12A
330
1F
100
AcDbEntity
  8
A_RUNDUNGEN
  6
Continuous
 62
     7
100
AcDbLine
 10
988.9323900159327
 20
11.71620333416175
 30
0.0
 11
986.2932160567327
 21
12.08710881746177
 31
0.0
  0
LINE
  5
12B
330
1F
100
AcDbEntity
  8
0
  6
Continuous
 62
     7
100
AcDbLine
 10
987.7709974971326
 20
13.06956129756171
 30
0.0
 11
988.1501877957124
 21
13.01627047129113
 31
0.0
  0
LINE
  5
12C
330
1F
100
AcDbEntity
  8
A_RUNDUNGEN
  6
Continuous
 62
     7
100
AcDbLine
 10
988.4628146820326
 20
10.64750178886172
 30
0.0
 11
989.3926515654327
 21
10.49752830716173
 31
0.0
  0
LINE
  5
12D
330
1F
100
AcDbEntity
  8
0
  6
Continuous
 62
     7
100
AcDbLine
 10
985.3628113392326
 20
11.14777012436176
 30
0.0
 11
988.4628146820326
 21
10.64779085026171
 31
0.0
  0
LINE
  5
12E
330
1F
100
AcDbEntity
  8
0
  6
DASHED
 62
     2
100
AcDbLine
 10
999.0107989973243
 20
17.59939156318566
 30
0.0
 11
994.490428520577
 21
18.23467753598712
 31
0.0
  0
LINE
  5
12F
330
1F
100
AcDbEntity
  8
0
  6
DASHED
 62
     2
100
AcDbLine
 10
999.0107872036326
 20
22.69586626156175
 30
0.0
 11
996.5805511087686
 21
22.35431311743447
 31
0.0
  0
LINE
  5
130
330
1F
100
AcDbEntity
  8
A_RUNDUNGEN
  6
Continuous
 62
     7
100
AcDbLine
 10
989.5390685693326
 20
30.02111276896173
 30
0.0
 11
988.4626863152328
 21
29.84750178826172
 31
0.0
  0
LINE
  5
131
330
1F
100
AcDbEntity
  8
0
  6
Continuous
 62
     7
100
AcDbLine
 10
988.4626863152328
 20
29.84779084956173
 30
0.0
 11
985.3626896582327
 21
29.34777012376176
 31
0.0
  0
LINE
  5
132
330
1F
100
AcDbEntity
  8
0
  6
Continuous
 62
     7
100
AcDbLine
 10
987.7709647387326
 20
27.22564450746174
 30
0.0
 11
998.1687760789325
 21
28.68698612896176
 31
0.0
  0
LINE
  5
133
330
1F
100
AcDbEntity
  8
A_RUNDUNGEN
  6
Continuous
 62
     7
100
AcDbLine
 10
986.2931787514326
 20
28.20809014816169
 30
0.0
 11
988.5887689747182
 21
28.53071973139591
 31
0.0
  0
LINE
  5
134
330
1F
100
AcDbEntity
  8
A_ACHSEN
  6
DOT_CENTER
 62
     2
100
AcDbLine
 10
1004.662766598933
 20
27.64760919966173
 30
0.0
 11
1000.412766598933
 21
27.64760919966173
 31
0.0
  0
LINE
  5
135
330
1F
100
AcDbEntity
  8
A_ACHSEN
  6
CENTER_1
 62
     2
100
AcDbLine
 10
1004.662766598933
 20
27.64760919966173
 30
0.0
 11
1006.662801310555
 21
27.64760919966173
 31
0.0
  0
LINE
  5
136
330
1F
100
AcDbEntity
  8
A_RUNDUNGEN
  6
Continuous
 62
     7
100
AcDbLine
 10
989.8627608137326
 20
30.1476077429617
 30
0.0
 11
990.7647927227564
 21
30.14760983033734
 31
0.0
  0
LINE
  5
137
330
1F
100
AcDbEntity
  8
A_RUNDUNGEN
  6
Continuous
 62
     7
100
AcDbLine
 10
1001.362757573933
 20
31.54763435496173
 30
0.0
 11
1016.362801310133
 21
31.54766906622362
 31
0.0
  0
LINE
  5
138
330
1F
100
AcDbEntity
  8
A_RUNDUNGEN
  6
Continuous
 62
     7
100
AcDbLine
 10
983.9626729438326
 20
31.84744475016172
 30
0.0
 11
984.1626729459326
 21
31.84744608726172
 31
0.0
  0
LINE
  5
139
330
1F
100
AcDbEntity
  8
A_RUNDUNGEN
  6
Continuous
 62
     7
100
AcDbLine
 10
1016.662672943033
 20
31.84765439076174
 30
0.0
 11
988.4626729437327
 21
31.84750178816174
 31
0.0
  0
LINE
  5
13A
330
1F
100
AcDbEntity
  8
0
  6
Continuous
 62
     7
100
AcDbLine
 10
984.1626729438326
 20
31.84776210076169
 30
0.0
 11
988.4626729437327
 21
31.84779084956174
 31
0.0
  0
LINE
  5
13B
330
1F
100
AcDbEntity
  8
0
  6
Continuous
 62
     7
100
AcDbLine
 10
983.9626722752325
 20
31.94776076356172
 30
0.0
 11
1010.739438081033
 21
31.94793978686172
 31
0.0
  0
LINE
  5
13C
330
1F
100
AcDbEntity
  8
A_RUNDUNGEN
  6
Continuous
 62
     7
100
AcDbLine
 10
1012.662661579425
 20
33.64763962636177
 30
0.0
 11
1016.662661577233
 21
33.64765439076172
 31
0.0
  0
LINE
  5
13D
330
1F
100
AcDbEntity
  8
0
  6
Continuous
 62
     7
100
AcDbLine
 10
983.6626615780052
 20
33.64775875773504
 30
0.0
 11
1012.662661577333
 21
33.6479526451617
 31
0.0
  0
LINE
  5
13E
330
1F
100
AcDbEntity
  8
1
  6
Continuous
 62
     7
100
AcDbLine
 10
1018.162801310133
 20
31.14765030186172
 30
0.0
 11
1019.894852117702
 21
28.14765030186172
 31
0.0
  0
LINE
  5
13F
330
1F
100
AcDbEntity
  8
1
  6
Continuous
 62
     7
100
AcDbLine
 10
1019.894852117702
 20
28.14765030186172
 30
0.0
 11
1029.430750502564
 21
28.14765030186172
 31
0.0
  0
LINE
  5
140
330
1F
100
AcDbEntity
  8
1
  6
Continuous
 62
     7
100
AcDbLine
 10
1029.430750502564
 20
28.14765030186172
 30
0.0
 11
1031.162801310133
 21
31.14765030186172
 31
0.0
  0
LINE
  5
141
330
1F
100
AcDbEntity
  8
1
  6
Continuous
 62
     7
100
AcDbLine
 10
1031.162801310133
 20
31.14765030186172
 30
0.0
 11
1031.162801310133
 21
34.14765030186172
 31
0.0
  0
LINE
  5
142
330
1F
100
AcDbEntity
  8
1
  6
Continuous
 62
     7
100
AcDbLine
 10
1019.162801310133
 20
33.14765030186172
 30
0.0
 11
1030.162801310133
 21
33.14765030186172
 31
0.0
  0
LINE
  5
143
330
1F
100
AcDbEntity
  8
1
  6
Continuous
 62
     7
100
AcDbLine
 10
1030.162801310133
 20
33.14765030186172
 30
0.0
 11
1030.162801310133
 21
31.41559949429283
 31
0.0
  0
LINE
  5
144
330
1F
100
AcDbEntity
  8
1
  6
Continuous
 62
     7
100
AcDbLine
 10
1030.162801310133
 20
31.41559949429283
 30
0.0
 11
1028.853400233374
 21
29.14765030186172
 31
0.0
  0
LINE
  5
145
330
1F
100
AcDbEntity
  8
1
  6
Continuous
 62
     7
100
AcDbLine
 10
1028.853400233374
 20
29.14765030186172
 30
0.0
 11
1020.472202386891
 21
29.14765030186172
 31
0.0
  0
LINE
  5
146
330
1F
100
AcDbEntity
  8
1
  6
Continuous
 62
     7
100
AcDbLine
 10
1020.472202386891
 20
29.14765030186172
 30
0.0
 11
1019.162801310133
 21
31.41559949429283
 31
0.0
  0
LINE
  5
147
330
1F
100
AcDbEntity
  8
1
  6
Continuous
 62
     7
100
AcDbLine
 10
1019.162801310133
 20
31.41559949429283
 30
0.0
 11
1019.162801310133
 21
33.14765030186172
 31
0.0
  0
LINE
  5
148
330
1F
100
AcDbEntity
  8
1
  6
PHANTOM
 62
     2
100
AcDbLine
 10
968.1628013101326
 20
4.14765030186172
 30
0.0
 11
968.1628013101326
 21
0.58936323294671
 31
0.0
  0
LINE
  5
149
330
1F
100
AcDbEntity
  8
1
  6
PHANTOM
 62
     2
100
AcDbLine
 10
968.1628013101326
 20
60.14765030186169
 30
0.0
 11
968.1628013101326
 21
62.63005001241072
 31
0.0
  0
LINE
  5
14A
330
1F
100
AcDbEntity
  8
1
  6
Continuous
 62
     7
100
AcDbLine
 10
1018.162801310133
 20
34.14765030186172
 30
0.0
 11
1018.162801310133
 21
33.64765439076172
 31
0.0
  0
LINE
  5
14B
330
1F
100
AcDbEntity
  8
1
  6
Continuous
 62
     7
100
AcDbLine
 10
1018.162801310133
 20
34.14765030186172
 30
0.0
 11
1018.162801310133
 21
33.64765439076172
 31
0.0
  0
LINE
  5
14C
330
1F
100
AcDbEntity
  8
1
  6
DASHED
 62
     2
100
AcDbLine
 10
1018.162801310133
 20
4.14765030186172
 30
0.0
 11
1016.732657668884
 21
4.14765030186172
 31
0.0
  0
LINE
  5
14D
330
1F
100
AcDbEntity
  8
1
  6
Continuous
 62
     7
100
AcDbLine
 10
1011.162801310133
 20
7.64765030186172
 30
0.0
 11
1011.162801310133
 21
7.64760862155449
 31
0.0
  0
LINE
  5
14E
330
1F
100
AcDbEntity
  8
1
  6
Continuous
 62
     7
100
AcDbLine
 10
1018.162801310133
 20
31.5476732315629
 30
0.0
 11
1018.162801310133
 21
18.69034783277049
 31
0.0
  0
ARC
  5
14F
330
1F
100
AcDbEntity
  8
DEFAULT_2
  6
Continuous
 62
     7
100
AcDbCircle
 10
1026.763039240887
 20
8.02386849841367
 30
0.0
 40
1.000000000000067
100
AcDbArc
 50
145.5977346569194
 51
185.5977346538214
  0
ARC
  5
150
330
1F
100
AcDbEntity
  8
A_ACHSEN
  6
Continuous
 62
     7
100
AcDbCircle
 10
1004.649000077201
 20
16.63822842146399
 30
0.0
 40
4.486791635600261
100
AcDbArc
 50
55.59773465690499
 51
191.6786666445168
  0
ARC
  5
151
330
1F
100
AcDbEntity
  8
DEFAULT_2
  6
Continuous
 62
     7
100
AcDbCircle
 10
1000.343160738691
 20
0.78493683365138
 30
0.0
 40
20.00000000006052
100
AcDbArc
 50
5.59773465702405
 51
55.59773465691166
  0
ARC
  5
152
330
1F
100
AcDbEntity
  8
A_ACHSEN
  6
Continuous
 62
     7
100
AcDbCircle
 10
996.337899897027
 20
14.9203093128243
 30
0.0
 40
3.999999999999972
100
AcDbArc
 50
145.5977346569083
 51
11.67866664401775
  0
ARC
  5
153
330
1F
100
AcDbEntity
  8
A_ACHSEN
  6
Continuous
 62
     7
100
AcDbCircle
 10
1003.073078851934
 20
21.21613050194485
 30
0.0
 40
5.999999999999903
100
AcDbArc
 50
55.59773465691048
 51
145.5977346569099
  0
ARC
  5
154
330
1F
100
AcDbEntity
  8
DEFAULT_2
  6
Continuous
 62
     7
100
AcDbCircle
 10
1009.880275295691
 20
-11.32095720694665
 30
0.0
 40
4.399999999999241
100
AcDbArc
 50
25.82660098470726
 51
261.5977346573396
  0
ARC
  5
155
330
1F
100
AcDbEntity
  8
DEFAULT_2
  6
Continuous
 62
     7
100
AcDbCircle
 10
1015.641021584081
 20
-8.53280330139839
 30
0.0
 40
2.000000000018202
100
AcDbArc
 50
205.8266009852138
 51
261.5977346574539
  0
ARC
  5
156
330
1F
100
AcDbEntity
  8
DEFAULT_2
  6
Continuous
 62
     7
100
AcDbCircle
 10
1020.517106679481
 20
-10.26388779785917
 30
0.0
 40
6.999999999994823
100
AcDbArc
 50
261.597734656715
 51
5.59773465652269
  0
ARC
  5
157
330
1F
100
AcDbEntity
  8
DEFAULT_2
  6
Continuous
 62
     7
100
AcDbCircle
 10
1019.397025370572
 20
-9.08759342859625
 30
0.0
 40
2.000000000010975
100
AcDbArc
 50
261.5977346574525
 51
5.59773465820412
  0
ARC
  5
158
330
1F
100
AcDbEntity
  8
DEFAULT_2
  6
Continuous
 62
     7
100
AcDbCircle
 10
1022.920083253223
 20
11.2614122088319
 30
0.0
 40
4.000000000000128
100
AcDbArc
 50
325.5977346569137
 51
89.15504441881599
  0
ARC
  5
159
330
1F
100
AcDbEntity
  8
DEFAULT_2
  6
Continuous
 62
     7
100
AcDbCircle
 10
1023.008563587593
 20
17.26075977586468
 30
0.0
 40
1.999999999999782
100
AcDbArc
 50
235.5977346569186
 51
269.1550444175588
  0
ARC
  5
15A
330
1F
100
AcDbEntity
  8
0
  6
DASHED
 62
     2
100
AcDbCircle
 10
1009.413881869667
 20
14.39347737279367
 30
0.0
 40
5.999999999934758
100
AcDbArc
 50
68.64999999983623
 51
108.1676241945682
  0
ARC
  5
15B
330
1F
100
AcDbEntity
  8
DEFAULT_2
  6
DASHED
 62
     2
100
AcDbCircle
 10
1022.920083253223
 20
11.2614122088319
 30
0.0
 40
3.999999999999347
100
AcDbArc
 50
300.6499999999899
 51
325.597734656913
  0
ARC
  5
15C
330
1F
100
AcDbEntity
  8
0
  6
Continuous
 62
     7
100
AcDbCircle
 10
1009.940104138719
 20
8.39678949094245
 30
0.0
 40
6.000000000000248
100
AcDbArc
 50
8.64999999995558
 51
43.65000000036734
  0
ARC
  5
15D
330
1F
100
AcDbEntity
  8
A_ACHSEN
  6
Continuous
 62
     7
100
AcDbCircle
 10
1004.458884365755
 20
12.99176929261325
 30
0.0
 40
3.999999999942102
100
AcDbArc
 50
128.6500000009673
 51
313.6499999987557
  0
ARC
  5
15E
330
1F
100
AcDbEntity
  8
A_RUNDUNGEN
  6
Continuous
 62
     7
100
AcDbCircle
 10
1003.231416957919
 20
14.57103894490461
 30
0.0
 40
2.000000000019357
100
AcDbArc
 50
68.65000000133394
 51
128.650000002199
  0
ARC
  5
15F
330
1F
100
AcDbEntity
  8
0
  6
Continuous
 62
     7
100
AcDbCircle
 10
1009.413881869667
 20
14.39347737279367
 30
0.0
 40
5.999999999956397
100
AcDbArc
 50
108.1676241945682
 51
128.6500000004389
  0
ARC
  5
160
330
1F
100
AcDbEntity
  8
A_RUNDUNGEN
  6
Continuous
 62
     7
100
AcDbCircle
 10
1012.069441815102
 20
11.95965973917216
 30
0.0
 40
2.00000000003154
100
AcDbArc
 50
43.65000000015543
 51
133.6499999980159
  0
ARC
  5
161
330
1F
100
AcDbEntity
  8
A_RUNDUNGEN
  6
Continuous
 62
     7
100
AcDbCircle
 10
1009.157770087757
 20
13.3281731949964
 30
0.0
 40
0.9999999999995702
100
AcDbArc
 50
313.6499999999915
 51
68.64999999907641
  0
ARC
  5
162
330
1F
100
AcDbEntity
  8
0
  6
Continuous
 62
     7
100
AcDbCircle
 10
1022.445661784632
 20
5.98111259311723
 30
0.0
 40
6.000000000001181
100
AcDbArc
 50
188.6499999999564
 51
210.6499999999951
  0
ARC
  5
163
330
1F
100
AcDbEntity
  8
0
  6
DASHED
 62
     2
100
AcDbCircle
 10
1024.602361455892
 20
5.28395957005493
 30
0.0
 40
2.000000000000022
100
AcDbArc
 50
120.6499999999973
 51
210.649999999998
  0
ARC
  5
164
330
1F
100
AcDbEntity
  8
A_RUNDUNGEN
  6
Continuous
 62
     7
100
AcDbCircle
 10
1021.831197184021
 20
-12.97455285397176
 30
0.0
 40
8.999999999980501
100
AcDbArc
 50
305.6500000004654
 51
22.65000000027729
  0
ARC
  5
165
330
1F
100
AcDbEntity
  8
A_RUNDUNGEN
  6
DASHED
 62
     2
100
AcDbCircle
 10
1017.493824703394
 20
-11.16301847407574
 30
0.0
 40
6.99999999995524
100
AcDbArc
 50
305.6499999997547
 51
30.64999999999781
  0
ARC
  5
166
330
1F
100
AcDbEntity
  8
A_ACHSEN
  6
Continuous
 62
     7
100
AcDbCircle
 10
1015.527545192748
 20
-23.34133885267218
 30
0.0
 40
4.250000000000718
100
AcDbArc
 50
72.5198976457982
 51
305.6499999989428
  0
ARC
  5
167
330
1F
100
AcDbEntity
  8
A_ACHSEN
  6
Continuous
 62
     7
100
AcDbCircle
 10
1017.404886287039
 20
-17.3799555890898
 30
0.0
 40
1.999999999969977
100
AcDbArc
 50
252.5198976473874
 51
305.6500000000916
  0
ARC
  5
168
330
1F
100
AcDbEntity
  8
A_RUNDUNGEN
  6
Continuous
 62
     7
100
AcDbCircle
 10
1028.831761010145
 20
-17.79555960733887
 30
0.0
 40
0.4999999999997849
100
AcDbArc
 50
325.4463785039131
 51
95.64999999609027
  0
ARC
  5
169
330
1F
100
AcDbEntity
  8
A_RUNDUNGEN
  6
DASHED
 62
     2
100
AcDbCircle
 10
1025.8161182518
 20
-13.32095772136561
 30
0.0
 40
2.499999999961699
100
AcDbArc
 50
225.0000000001074
 51
250.0439623923723
  0
ARC
  5
16A
330
1F
100
AcDbEntity
  8
A_RUNDUNGEN
  6
Continuous
 62
     7
100
AcDbCircle
 10
1029.080584345664
 20
-35.49253059665598
 30
0.0
 40
1.000000000040559
100
AcDbArc
 50
134.9999999951986
 51
179.9999999955259
  0
ARC
  5
16B
330
1F
100
AcDbEntity
  8
A_RUNDUNGEN
  6
Continuous
 62
     7
100
AcDbCircle
 10
1009.066952100925
 20
-37.59781928700542
 30
0.0
 40
1.000000000003878
100
AcDbArc
 50
163.0000000045582
 51
252.9999999990567
  0
ARC
  5
16C
330
1F
100
AcDbEntity
  8
A_RUNDUNGEN
  6
Continuous
 62
     7
100
AcDbCircle
 10
1012.939986362445
 20
-38.78192469117847
 30
0.0
 40
1.000000000002433
100
AcDbArc
 50
253.0000000045839
 51
342.9999999991112
  0
ARC
  5
16D
330
1F
100
AcDbEntity
  8
A_RUNDUNGEN
  6
Continuous
 62
     7
100
AcDbCircle
 10
1018.309376890688
 20
-38.32095772131986
 30
0.0
 40
0.9999999999364751
100
AcDbArc
 50
162.9999999973839
 51
270.0000000013158
  0
ARC
  5
16E
330
1F
100
AcDbEntity
  8
A_RUNDUNGEN
  6
Continuous
 62
     7
100
AcDbCircle
 10
1027.080584345684
 20
-38.32095772136346
 30
0.0
 40
1.000000000022069
100
AcDbArc
 50
270.0000000012637
 51
0.00000000125797
  0
ARC
  5
16F
330
1F
100
AcDbEntity
  8
A_RUNDUNGEN
  6
Continuous
 62
     7
100
AcDbCircle
 10
1028.780584345759
 20
-32.9641034718661
 30
0.0
 40
0.9999999999705507
100
AcDbArc
 50
314.9999999992835
 51
0.00000000128769
  0
ARC
  5
170
330
1F
100
AcDbEntity
  8
0
  6
Continuous
 62
     7
100
AcDbCircle
 10
1005.280327627086
 20
-46.82095771948151
 30
0.0
 40
1.000000000021942
100
AcDbArc
 50
180.000000001284
 51
269.9999999955315
  0
ARC
  5
171
330
1F
100
AcDbEntity
  8
0
  6
Continuous
 62
     7
100
AcDbCircle
 10
1031.780327626779
 20
-46.82095771969262
 30
0.0
 40
1.000000000022538
100
AcDbArc
 50
270.0000000012637
 51
0.00000000126978
  0
ARC
  5
172
330
1F
100
AcDbEntity
  8
0
  6
Continuous
 62
     7
100
AcDbCircle
 10
1011.3805843461
 20
-9.82095772121549
 30
0.0
 40
2.999999999967031
100
AcDbArc
 50
359.9999999993599
 51
89.99999999937035
  0
ARC
  5
173
330
1F
100
AcDbEntity
  8
A_RUNDUNGEN
  6
DASHED
 62
     2
100
AcDbCircle
 10
1025.8161182518
 20
-13.32095772136561
 30
0.0
 40
2.499999999955945
100
AcDbArc
 50
250.0439623923723
 51
270.0000000012871
  0
ARC
  5
174
330
1F
100
AcDbEntity
  8
A_RUNDUNGEN
  6
DASHED
 62
     2
100
AcDbCircle
 10
1016.376244719115
 20
-13.69020038797712
 30
0.0
 40
0.9999999999069566
100
AcDbArc
 50
73.00000000290467
 51
162.9999999996828
  0
ARC
  5
175
330
1F
100
AcDbEntity
  8
A_RUNDUNGEN
  6
DASHED
 62
     2
100
AcDbCircle
 10
1020.249278980636
 20
-14.87430579215004
 30
0.0
 40
1.000000000018219
100
AcDbArc
 50
342.9999999997318
 51
72.99999999742785
  0
ARC
  5
176
330
1F
100
AcDbEntity
  8
A_RUNDUNGEN
  6
DASHED
 62
     2
100
AcDbCircle
 10
1023.965394497804
 20
-19.82095772128315
 30
0.0
 40
0.999999999922192
100
AcDbArc
 50
90.0000000013223
 51
163.0000000045642
  0
ARC
  5
177
330
1F
100
AcDbEntity
  8
A_RUNDUNGEN
  6
Continuous
 62
     7
100
AcDbCircle
 10
1028.780584345811
 20
-19.82095772137238
 30
0.0
 40
1.000000000022055
100
AcDbArc
 50
0.00000000126347
 51
90.00000000125064
  0
ARC
  5
178
330
1F
100
AcDbEntity
  8
1
  6
DASHED
 62
     2
100
AcDbCircle
 10
1004.662766598933
 20
27.64760919966173
 30
0.0
 40
2.99999999999996
100
AcDbArc
 50
273.233037892041
 51
321.684653607351
  0
ARC
  5
179
330
1F
100
AcDbEntity
  8
1
  6
Continuous
 62
     7
100
AcDbCircle
 10
1004.662766598933
 20
27.64760919966173
 30
0.0
 40
3.0
100
AcDbArc
 50
0.0
 51
191.2625082134236
  0
ARC
  5
17A
330
1F
100
AcDbEntity
  8
0
  6
Continuous
 62
     7
100
AcDbCircle
 10
998.3079864098327
 20
12.5985361896617
 30
0.0
 40
1.000000000003442
100
AcDbArc
 50
290.4659021070309
 51
330.1650873082183
  0
ARC
  5
17B
330
1F
100
AcDbEntity
  8
0
  6
DASHED
 62
     2
100
AcDbCircle
 10
998.3079864098327
 20
12.5985361896617
 30
0.0
 40
1.000000000137026
100
AcDbArc
 50
262.0001325862513
 51
290.4659021070309
  0
ARC
  5
17C
330
1F
100
AcDbEntity
  8
1
  6
DASHED
 62
     2
100
AcDbCircle
 10
1004.662766598933
 20
27.64760919966173
 30
0.0
 40
3.000000000000691
100
AcDbArc
 50
191.2625082134236
 51
207.8172517208199
  0
ARC
  5
17D
330
1F
100
AcDbEntity
  8
1
  6
Continuous
 62
     7
100
AcDbCircle
 10
1004.662766598933
 20
27.64760919966173
 30
0.0
 40
2.999999999999899
100
AcDbArc
 50
321.684653607351
 51
342.766962108597
  0
ARC
  5
17E
330
1F
100
AcDbEntity
  8
1
  6
Continuous
 62
     7
100
AcDbCircle
 10
1004.662766598933
 20
27.64760919966173
 30
0.0
 40
2.99999999999946
100
AcDbArc
 50
342.766962108597
 51
0.0
  0
ARC
  5
17F
330
1F
100
AcDbEntity
  8
1
  6
DASHED
 62
     2
100
AcDbCircle
 10
1004.662766598933
 20
27.64760919966173
 30
0.0
 40
3.000000000000374
100
AcDbArc
 50
207.8172517208199
 51
273.233037892041
  0
ARC
  5
180
330
1F
100
AcDbEntity
  8
0
  6
DASHED
 62
     2
100
AcDbCircle
 10
998.8716281879326
 20
16.60912317236173
 30
0.0
 40
1.000000000003447
100
AcDbArc
 50
352.0001325870539
 51
43.95001951786249
  0
ARC
  5
181
330
1F
100
AcDbEntity
  8
0
  6
Continuous
 62
     7
100
AcDbCircle
 10
987.9101683065326
 20
14.0598296883617
 30
0.0
 40
1.000000000003224
100
AcDbArc
 50
172.0001325870516
 51
262.000132587056
  0
ARC
  5
182
330
1F
100
AcDbEntity
  8
0
  6
DASHED
 62
     2
100
AcDbCircle
 10
998.3079864098327
 20
12.5985361896617
 30
0.0
 40
1.000000000003412
100
AcDbArc
 50
330.1650873082183
 51
352.0001325870567
  0
ARC
  5
183
330
1F
100
AcDbEntity
  8
0
  6
DASHED
 62
     2
100
AcDbCircle
 10
998.8716281879326
 20
16.60912317236173
 30
0.0
 40
1.00000000002588
100
AcDbArc
 50
43.95001951786249
 51
82.00013258771773
  0
ARC
  5
184
330
1F
100
AcDbEntity
  8
0
  6
Continuous
 62
     7
100
AcDbCircle
 10
988.4738100845327
 20
18.07041667106174
 30
0.0
 40
0.9999999999042531
100
AcDbArc
 50
82.00013258625825
 51
172.0001325870574
  0
ARC
  5
185
330
1F
100
AcDbEntity
  8
0
  6
Continuous
 62
     7
100
AcDbCircle
 10
988.4738004710327
 20
22.22479238676172
 30
0.0
 40
1.000000000015962
100
AcDbArc
 50
188.0001325857743
 51
278.0001325865722
  0
ARC
  5
186
330
1F
100
AcDbEntity
  8
0
  6
DASHED
 62
     2
100
AcDbCircle
 10
998.8716118111327
 20
23.68613400826169
 30
0.0
 40
1.000000000015846
100
AcDbArc
 50
278.0001325857755
 51
8.00013258578118
  0
ARC
  5
187
330
1F
100
AcDbEntity
  8
0
  6
Continuous
 62
     7
100
AcDbCircle
 10
998.3079514714327
 20
27.69671838226171
 30
0.0
 40
1.00000000001597
100
AcDbArc
 50
8.00013258577755
 51
98.00013258578748
  0
ARC
  5
188
330
1F
100
AcDbEntity
  8
0
  6
Continuous
 62
     7
100
AcDbCircle
 10
987.9101401312325
 20
26.23537676086173
 30
0.0
 40
0.9999999999168918
100
AcDbArc
 50
98.00013258657229
 51
188.0001325922504
  0
ARC
  5
189
330
1F
100
AcDbEntity
  8
A_RUNDUNGEN
  6
Continuous
 62
     7
100
AcDbCircle
 10
986.3627664477326
 20
27.71295627486174
 30
0.0
 40
0.499999999965355
100
AcDbArc
 50
98.00013259224949
 51
180.0001325938964
  0
ARC
  5
18A
330
1F
100
AcDbEntity
  8
A_RUNDUNGEN
  6
Continuous
 62
     7
100
AcDbCircle
 10
989.8627619707327
 20
29.6476077429617
 30
0.0
 40
0.5000000000013386
100
AcDbArc
 50
90.00013258243865
 51
180.0001325824256
  0
ARC
  5
18B
330
1F
100
AcDbEntity
  8
A_RUNDUNGEN
  6
Continuous
 62
     7
100
AcDbCircle
 10
1001.362758731033
 20
31.04763435496173
 30
0.0
 40
0.5000000000013388
100
AcDbArc
 50
90.00013259388987
 51
180.0001325938895
  0
ARC
  5
18C
330
1F
100
AcDbEntity
  8
A_RUNDUNGEN
  6
Continuous
 62
     7
100
AcDbCircle
 10
1001.362809178033
 20
9.24763435516175
 30
0.0
 40
0.5000000000013386
100
AcDbArc
 50
180.0001325824387
 51
270.0001325824387
  0
ARC
  5
18D
330
1F
100
AcDbEntity
  8
A_RUNDUNGEN
  6
Continuous
 62
     7
100
AcDbCircle
 10
989.8628059383327
 20
10.64760774326172
 30
0.0
 40
0.5000000000013388
100
AcDbArc
 50
180.0001325938907
 51
270.0001325824126
  0
ARC
  5
18E
330
1F
100
AcDbEntity
  8
A_RUNDUNGEN
  6
Continuous
 62
     7
100
AcDbCircle
 10
986.3628014614326
 20
12.58224301286171
 30
0.0
 40
0.5000000000013388
100
AcDbArc
 50
180.0001325938895
 51
262.000132587068
  0
ARC
  5
18F
330
1F
100
AcDbEntity
  8
A_RUNDUNGEN
  6
Continuous
 62
     7
100
AcDbCircle
 10
988.8628046112326
 20
11.22106913876169
 30
0.0
 40
0.5000000000013388
100
AcDbArc
 50
0.00013259389639
 51
82.0001325870441
  0
ARC
  5
190
330
1F
100
AcDbEntity
  8
A_RUNDUNGEN
  6
Continuous
 62
     7
100
AcDbCircle
 10
988.8627632978325
 20
29.07414171926169
 30
0.0
 40
0.4999999999514594
100
AcDbArc
 50
278.0001325809227
 51
0.00013259389639
  0
CIRCLE
  5
191
330
1F
100
AcDbEntity
  8
A_ACHSEN
  6
Continuous
 62
     7
100
AcDbCircle
 10
996.337899897027
 20
14.9203093128243
 30
0.0
 40
1.950000000000085
  0
CIRCLE
  5
192
330
1F
100
AcDbEntity
  8
0
  6
Continuous
 62
     7
100
AcDbCircle
 10
1022.920083253223
 20
11.2614122088319
 30
0.0
 40
2.024999999999558
  0
CIRCLE
  5
193
330
1F
100
AcDbEntity
  8
A_ACHSEN
  6
Continuous
 62
     7
100
AcDbCircle
 10
1015.527545192748
 20
-23.34133885267218
 30
0.0
 40
1.661324865400141
  0
CIRCLE
  5
194
330
1F
100
AcDbEntity
  8
A_ACHSEN
  6
DASHED
 62
     2
100
AcDbCircle
 10
1009.8805787311
 20
-11.32095772114506
 30
0.0
 40
3.999999999999998
  0
CIRCLE
  5
195
330
1F
100
AcDbEntity
  8
0
  6
Continuous
 62
     7
100
AcDbCircle
 10
1009.8805809771
 20
-11.32095772116008
 30
0.0
 40
2.039999999999992
  0
CIRCLE
  5
196
330
1F
100
AcDbEntity
  8
1
  6
DASHED
 62
     2
100
AcDbCircle
 10
1004.662801310133
 20
12.64765030186172
 30
0.0
 40
3.0
  0
ARC
  5
198
330
1F
100
AcDbEntity
  8
1
  6
Continuous
 62
     7
100
AcDbCircle
 10
983.6628280536419
 20
8.64775875860773
 30
0.0
 40
0.9999999999999534
100
AcDbArc
 50
180.0003830663088
 51
270.0003830663071
  0
ARC
  5
199
330
1F
100
AcDbEntity
  8
1
  6
Continuous
 62
     7
100
AcDbCircle
 10
983.7126682637788
 20
32.59775875775738
 30
0.0
 40
1.051190120090149
100
AcDbArc
 50
92.72667499380083
 51
182.7266749935136
  0
HATCH
  5
19A
330
1F
100
AcDbEntity
  8
0
  6
Continuous
 62
     2
100
AcDbHatch
 10
0.0
 20
0.0
 30
0.0
210
0.0
220
0.0
230
1.0
  2
CUSTOM0
 70
     0
 71
     0
 91
        1
 92
        1
 93
        5
 72
     1
 10
1004.280327627385
 20
-2.82095771942079
 11
1010.880327627329
 21
-2.820958388054082
 72
     1
 10
1010.880327627329
 20
-2.820958388054082
 11
1010.880327627284
 21
-3.070958388059681
 72
     1
 10
1010.880327627284
 20
-3.070958388059681
 11
1007.98128952169
 21
-3.820957719451875
 72
     1
 10
1007.98128952169
 20
-3.820957719451875
 11
1004.280327627408
 21
-3.820957719443087
 72
     1
 10
1004.280327627408
 20
-3.820957719443087
 11
1004.280327627385
 21
-2.82095771942079
 97
        0
 75
     1
 76
     2
 52
44.99999999999998
 41
1.0
 77
     0
 78
     1
 53
44.99999999999998
 43
0.0
 44
0.0
 45
-1.414213562380958
 46
0.0000000000000006
 79
     0
 98
        1
 10
0.0
 20
0.0
  0
ENDSEC
  0
SECTION
  2
OBJECTS
  0
DICTIONARY
  5
C
330
0
100
AcDbDictionary
281
     1
  3
ACAD_GROUP
350
D
  3
ACAD_LAYOUT
350
1A
  3
ACAD_MATERIAL
350
3B
  3
ACAD_MLEADERSTYLE
350
19C
  3
ACAD_MLINESTYLE
350
17
  3
ACAD_PLOTSETTINGS
350
19
  3
ACAD_PLOTSTYLENAME
350
E
  3
ACAD_TABLESTYLE
350
19B
  3
ACAD_VISUALSTYLE
350
2A
  0
DICTIONARY
  5
D
102
{ACAD_REACTORS
330
C
102
}
330
C
100
AcDbDictionary
281
     1
  0
DICTIONARY
  5
1A
102
{ACAD_REACTORS
330
C
102
}
330
C
100
AcDbDictionary
281
     1
  3
Layout1
350
1E
  3
Layout2
350
26
  3
Model
350
22
  0
DICTIONARY
  5
3B
102
{ACAD_REACTORS
330
C
102
}
330
C
100
AcDbDictionary
281
     1
  3
ByBlock
350
3D
  3
ByLayer
350
3C
  3
Global
350
3E
  0
DICTIONARY
  5
19C
102
{ACAD_REACTORS
330
C
102
}
330
C
100
AcDbDictionary
281
     1
  0
DICTIONARY
  5
17
102
{ACAD_REACTORS
330
C
102
}
330
C
100
AcDbDictionary
281
     1
  3
Standard
350
18
  0
DICTIONARY
  5
19
102
{ACAD_REACTORS
330
C
102
}
330
C
100
AcDbDictionary
281
     1
  0
ACDBDICTIONARYWDFLT
  5
E
102
{ACAD_REACTORS
330
C
102
}
330
C
100
AcDbDictionary
281
     1
  3
Normal
350
F
100
AcDbDictionaryWithDefault
340
F
  0
DICTIONARY
  5
19B
102
{ACAD_REACTORS
330
C
102
}
330
C
100
AcDbDictionary
281
     1
  0
DICTIONARY
  5
2A
102
{ACAD_REACTORS
330
C
102
}
330
C
100
AcDbDictionary
281
     1
  3
2dWireframe
350
2F
  3
3D Hidden
350
31
  3
3dWireframe
350
30
  3
Basic
350
32
  3
Brighten
350
36
  3
ColorChange
350
3A
  3
Conceptual
350
34
  3
Dim
350
35
  3
Facepattern
350
39
  3
Flat
350
2B
  3
FlatWithEdges
350
2C
  3
Gouraud
350
2D
  3
GouraudWithEdges
350
2E
  3
Linepattern
350
38
  3
Realistic
350
33
  3
Thicken
350
37
  0
LAYOUT
  5
1E
102
{ACAD_REACTORS
330
1A
102
}
330
1A
100
AcDbPlotSettings
  1

  2
none_device
  4

  6

 40
0.0
 41
0.0
 42
0.0
 43
0.0
 44
0.0
 45
0.0
 46
0.0
 47
0.0
 48
0.0
 49
0.0
140
0.0
141
0.0
142
1.0
143
1.0
 70
   688
 72
     0
 73
     0
 74
     5
  7

 75
    16
 76
     0
 77
     2
 78
   300
147
1.0
148
0.0
149
0.0
100
AcDbLayout
  1
Layout1
 70
     1
 71
     1
 10
0.0
 20
0.0
 11
12.0
 21
9.0
 12
0.0
 22
0.0
 32
0.0
 14
1.00000000000000E+20
 24
1.00000000000000E+20
 34
1.00000000000000E+20
 15
-1.00000000000000E+20
 25
-1.00000000000000E+20
 35
-1.00000000000000E+20
146
0.0
 13
0.0
 23
0.0
 33
0.0
 16
1.0
 26
0.0
 36
0.0
 17
0.0
 27
1.0
 37
0.0
 76
     0
330
1B
  0
LAYOUT
  5
26
102
{ACAD_REACTORS
330
1A
102
}
330
1A
100
AcDbPlotSettings
  1

  2
none_device
  4

  6

 40
0.0
 41
0.0
 42
0.0
 43
0.0
 44
0.0
 45
0.0
 46
0.0
 47
0.0
 48
0.0
 49
0.0
140
0.0
141
0.0
142
1.0
143
1.0
 70
   688
 72
     0
 73
     0
 74
     5
  7

 75
    16
 76
     0
 77
     2
 78
   300
147
1.0
148
0.0
149
0.0
100
AcDbLayout
  1
Layout2
 70
     1
 71
     2
 10
0.0
 20
0.0
 11
0.0
 21
0.0
 12
0.0
 22
0.0
 32
0.0
 14
0.0
 24
0.0
 34
0.0
 15
0.0
 25
0.0
 35
0.0
146
0.0
 13
0.0
 23
0.0
 33
0.0
 16
1.0
 26
0.0
 36
0.0
 17
0.0
 27
1.0
 37
0.0
 76
     0
330
23
  0
LAYOUT
  5
22
102
{ACAD_REACTORS
330
1A
102
}
330
1A
100
AcDbPlotSettings
  1

  2
none_device
  4

  6

 40
0.0
 41
0.0
 42
0.0
 43
0.0
 44
0.0
 45
0.0
 46
0.0
 47
0.0
 48
0.0
 49
0.0
140
0.0
141
0.0
142
1.0
143
1.0
 70
  1712
 72
     0
 73
     0
 74
     0
  7

 75
     0
 76
     0
 77
     2
 78
   300
147
1.0
148
0.0
149
0.0
100
AcDbLayout
  1
Model
 70
     1
 71
     0
 10
0.0
 20
0.0
 11
12.0
 21
9.0
 12
0.0
 22
0.0
 32
0.0
 14
968.1628013101326
 24
-72.68504911103417
 34
0.0
 15
1040.168697116951
 25
62.63005001241072
 35
0.0
146
0.0
 13
0.0
 23
0.0
 33
0.0
 16
1.0
 26
0.0
 36
0.0
 17
0.0
 27
1.0
 37
0.0
 76
     0
330
1F
331
29
  0
MATERIAL
  5
3D
102
{ACAD_REACTORS
330
3B
102
}
330
3B
100
AcDbMaterial
  1
ByBlock
 72
     1
 94
      127
  0
MATERIAL
  5
3C
102
{ACAD_REACTORS
330
3B
102
}
330
3B
100
AcDbMaterial
  1
ByLayer
 72
     1
 94
      127
  0
MATERIAL
  5
3E
102
{ACAD_REACTORS
330
3B
102
}
330
3B
100
AcDbMaterial
  1
Global
 72
     1
 94
      127
  0
MLINESTYLE
  5
18
102
{ACAD_REACTORS
330
17
102
}
330
17
100
AcDbMlineStyle
  2
Standard
 70
     0
  3

 62
   256
 51
90.0
 52
90.0
 71
     2
 49
0.5
 62
   256
  6
BYLAYER
 49
-0.5
 62
   256
  6
BYLAYER
  0
ACDBPLACEHOLDER
  5
F
102
{ACAD_REACTORS
330
E
102
}
330
E
  0
VISUALSTYLE
  5
2F
102
{ACAD_REACTORS
330
2A
102
}
330
2A
100
AcDbVisualStyle
  2
2dWireframe
 70
     4
177
     2
291
     0
 71
     0
176
     1
 72
     2
176
     1
 73
     0
176
     1
 90
        0
176
     1
 40
-0.6
176
     1
 41
-30.0
176
     1
 62
     5
 63
     7
421
 16777215
176
     1
 74
     1
176
     1
 91
        4
176
     1
 64
     7
176
     1
 65
   257
176
     1
 75
     1
176
     1
175
     1
176
     1
 42
1.0
176
     1
 92
        0
176
     1
 66
   257
176
     1
 43
1.0
176
     1
 76
     1
176
     1
 77
     6
176
     1
 78
     2
176
     1
 67
     7
176
     1
 79
     5
176
     1
170
     0
176
     1
171
     0
176
     1
290
     0
176
     1
 93
        1
176
     1
 44
0.0
176
     1
173
     0
176
     1
  0
VISUALSTYLE
  5
31
102
{ACAD_REACTORS
330
2A
102
}
330
2A
100
AcDbVisualStyle
  2
3D Hidden
 70
     6
177
     2
291
     0
 71
     1
176
     1
 72
     2
176
     1
 73
     2
176
     1
 90
        0
176
     1
 40
-0.6
176
     1
 41
-30.0
176
     1
 62
     5
 63
     7
421
 16777215
176
     1
 74
     2
176
     1
 91
        2
176
     1
 64
     7
176
     1
 65
   257
176
     1
 75
     2
176
     1
175
     1
176
     1
 42
40.0
176
     1
 92
        0
176
     1
 66
   257
176
     1
 43
1.0
176
     1
 76
     1
176
     1
 77
     6
176
     1
 78
     2
176
     1
 67
     7
176
     1
 79
     3
176
     1
170
     0
176
     1
171
     0
176
     1
290
     0
176
     1
 93
        1
176
     1
 44
0.0
176
     1
173
     0
176
     1
  0
VISUALSTYLE
  5
30
102
{ACAD_REACTORS
330
2A
102
}
330
2A
100
AcDbVisualStyle
  2
3dWireframe
 70
     5
177
     2
291
     0
 71
     0
176
     1
 72
     2
176
     1
 73
     0
176
     1
 90
        0
176
     1
 40
-0.6
176
     1
 41
-30.0
176
     1
 62
     5
 63
     7
421
 16777215
176
     1
 74
     1
176
     1
 91
        4
176
     1
 64
     7
176
     1
 65
   257
176
     1
 75
     1
176
     1
175
     1
176
     1
 42
1.0
176
     1
 92
        0
176
     1
 66
   257
176
     1
 43
1.0
176
     1
 76
     1
176
     1
 77
     6
176
     1
 78
     2
176
     1
 67
     7
176
     1
 79
     5
176
     1
170
     0
176
     1
171
     0
176
     1
290
     0
176
     1
 93
        1
176
     1
 44
0.0
176
     1
173
     0
176
     1
  0
VISUALSTYLE
  5
32
102
{ACAD_REACTORS
330
2A
102
}
330
2A
100
AcDbVisualStyle
  2
Basic
 70
     7
177
     2
291
     1
 71
     1
176
     1
 72
     0
176
     1
 73
     1
176
     1
 90
        0
176
     1
 40
-0.6
176
     1
 41
-30.0
176
     1
 62
     5
 63
     7
421
 16777215
176
     1
 74
     0
176
     1
 91
        4
176
     1
 64
     7
176
     1
 65
   257
176
     1
 75
     1
176
     1
175
     1
176
     1
 42
1.0
176
     1
 92
        8
176
     1
 66
     7
176
     1
 43
1.0
176
     1
 76
     1
176
     1
 77
     6
176
     1
 78
     2
176
     1
 67
     7
176
     1
 79
     5
176
     1
170
     0
176
     1
171
     0
176
     1
290
     0
176
     1
 93
        1
176
     1
 44
0.0
176
     1
173
     0
176
     1
  0
VISUALSTYLE
  5
36
102
{ACAD_REACTORS
330
2A
102
}
330
2A
100
AcDbVisualStyle
  2
Brighten
 70
    12
177
     2
291
     1
 71
     2
176
     1
 72
     2
176
     1
 73
     0
176
     1
 90
        0
176
     1
 40
-0.6
176
     1
 41
-30.0
176
     1
 62
     5
 63
     7
421
 16777215
176
     1
 74
     1
176
     1
 91
        4
176
     1
 64
     7
176
     1
 65
   257
176
     1
 75
     1
176
     1
175
     1
176
     1
 42
1.0
176
     1
 92
        8
176
     1
 66
     7
176
     1
 43
1.0
176
     1
 76
     1
176
     1
 77
     6
176
     1
 78
     2
176
     1
 67
     7
176
     1
 79
     5
176
     1
170
     0
176
     1
171
     0
176
     1
290
     0
176
     1
 93
        1
176
     1
 44
50.0
176
     1
173
     0
176
     1
  0
VISUALSTYLE
  5
3A
102
{ACAD_REACTORS
330
2A
102
}
330
2A
100
AcDbVisualStyle
  2
ColorChange
 70
    16
177
     2
291
     1
 71
     2
176
     1
 72
     2
176
     1
 73
     3
176
     1
 90
        0
176
     1
 40
-0.6
176
     1
 41
-30.0
176
     1
 62
     5
 63
     8
421
  8421504
176
     1
 74
     1
176
     1
 91
        4
176
     1
 64
     7
176
     1
 65
   257
176
     1
 75
     1
176
     1
175
     1
176
     1
 42
1.0
176
     1
 92
        8
176
     1
 66
     8
424
  8421504
176
     1
 43
1.0
176
     1
 76
     1
176
     1
 77
     6
176
     1
 78
     2
176
     1
 67
     7
176
     1
 79
     5
176
     1
170
     0
176
     1
171
     0
176
     1
290
     0
176
     1
 93
        1
176
     1
 44
0.0
176
     1
173
     0
176
     1
  0
VISUALSTYLE
  5
34
102
{ACAD_REACTORS
330
2A
102
}
330
2A
100
AcDbVisualStyle
  2
Conceptual
 70
     9
177
     2
291
     0
 71
     3
176
     1
 72
     2
176
     1
 73
     0
176
     1
 90
        0
176
     1
 40
-0.6
176
     1
 41
-30.0
176
     1
 62
     5
 63
     7
421
 16777215
176
     1
 74
     2
176
     1
 91
        2
176
     1
 64
     7
176
     1
 65
   257
176
     1
 75
     1
176
     1
175
     1
176
     1
 42
40.0
176
     1
 92
        8
176
     1
 66
     7
176
     1
 43
1.0
176
     1
 76
     1
176
     1
 77
     6
176
     1
 78
     2
176
     1
 67
     7
176
     1
 79
     3
176
     1
170
     0
176
     1
171
     0
176
     1
290
     0
176
     1
 93
        1
176
     1
 44
0.0
176
     1
173
     0
176
     1
  0
VISUALSTYLE
  5
35
102
{ACAD_REACTORS
330
2A
102
}
330
2A
100
AcDbVisualStyle
  2
Dim
 70
    11
177
     2
291
     1
 71
     2
176
     1
 72
     2
176
     1
 73
     0
176
     1
 90
        0
176
     1
 40
-0.6
176
     1
 41
-30.0
176
     1
 62
     5
 63
     7
421
 16777215
176
     1
 74
     1
176
     1
 91
        4
176
     1
 64
     7
176
     1
 65
   257
176
     1
 75
     1
176
     1
175
     1
176
     1
 42
1.0
176
     1
 92
        8
176
     1
 66
     7
176
     1
 43
1.0
176
     1
 76
     1
176
     1
 77
     6
176
     1
 78
     2
176
     1
 67
     7
176
     1
 79
     5
176
     1
170
     0
176
     1
171
     0
176
     1
290
     0
176
     1
 93
        1
176
     1
 44
-50.0
176
     1
173
     0
176
     1
  0
VISUALSTYLE
  5
39
102
{ACAD_REACTORS
330
2A
102
}
330
2A
100
AcDbVisualStyle
  2
Facepattern
 70
    15
177
     2
291
     1
 71
     2
176
     1
 72
     2
176
     1
 73
     0
176
     1
 90
        0
176
     1
 40
-0.6
176
     1
 41
-30.0
176
     1
 62
     5
 63
     7
421
 16777215
176
     1
 74
     1
176
     1
 91
        4
176
     1
 64
     7
176
     1
 65
   257
176
     1
 75
     1
176
     1
175
     1
176
     1
 42
1.0
176
     1
 92
        8
176
     1
 66
     7
176
     1
 43
1.0
176
     1
 76
     1
176
     1
 77
     6
176
     1
 78
     2
176
     1
 67
     7
176
     1
 79
     5
176
     1
170
     0
176
     1
171
     0
176
     1
290
     0
176
     1
 93
        1
176
     1
 44
0.0
176
     1
173
     0
176
     1
  0
VISUALSTYLE
  5
2B
102
{ACAD_REACTORS
330
2A
102
}
330
2A
100
AcDbVisualStyle
  2
Flat
 70
     0
177
     2
291
     1
 71
     2
176
     1
 72
     1
176
     1
 73
     1
176
     1
 90
        2
176
     1
 40
-0.6
176
     1
 41
30.0
176
     1
 62
     5
 63
     7
421
 16777215
176
     1
 74
     0
176
     1
 91
        4
176
     1
 64
     7
176
     1
 65
   257
176
     1
 75
     1
176
     1
175
     1
176
     1
 42
1.0
176
     1
 92
        8
176
     1
 66
     7
176
     1
 43
1.0
176
     1
 76
     1
176
     1
 77
     6
176
     1
 78
     2
176
     1
 67
     7
176
     1
 79
     5
176
     1
170
     0
176
     1
171
     0
176
     1
290
     0
176
     1
 93
       13
176
     1
 44
0.0
176
     1
173
     0
176
     1
  0
VISUALSTYLE
  5
2C
102
{ACAD_REACTORS
330
2A
102
}
330
2A
100
AcDbVisualStyle
  2
FlatWithEdges
 70
     1
177
     2
291
     1
 71
     2
176
     1
 72
     1
176
     1
 73
     1
176
     1
 90
        2
176
     1
 40
-0.6
176
     1
 41
30.0
176
     1
 62
     5
 63
     7
421
 16777215
176
     1
 74
     1
176
     1
 91
        4
176
     1
 64
     7
176
     1
 65
   257
176
     1
 75
     1
176
     1
175
     1
176
     1
 42
1.0
176
     1
 92
        0
176
     1
 66
   257
176
     1
 43
1.0
176
     1
 76
     1
176
     1
 77
     6
176
     1
 78
     2
176
     1
 67
     7
176
     1
 79
     5
176
     1
170
     0
176
     1
171
     0
176
     1
290
     0
176
     1
 93
       13
176
     1
 44
0.0
176
     1
173
     0
176
     1
  0
VISUALSTYLE
  5
2D
102
{ACAD_REACTORS
330
2A
102
}
330
2A
100
AcDbVisualStyle
  2
Gouraud
 70
     2
177
     2
291
     1
 71
     2
176
     1
 72
     2
176
     1
 73
     1
176
     1
 90
        2
176
     1
 40
-0.6
176
     1
 41
30.0
176
     1
 62
     5
 63
     7
421
 16777215
176
     1
 74
     0
176
     1
 91
        4
176
     1
 64
     7
176
     1
 65
   257
176
     1
 75
     1
176
     1
175
     1
176
     1
 42
1.0
176
     1
 92
        0
176
     1
 66
     7
176
     1
 43
1.0
176
     1
 76
     1
176
     1
 77
     6
176
     1
 78
     2
176
     1
 67
     7
176
     1
 79
     5
176
     1
170
     0
176
     1
171
     0
176
     1
290
     0
176
     1
 93
       13
176
     1
 44
0.0
176
     1
173
     0
176
     1
  0
VISUALSTYLE
  5
2E
102
{ACAD_REACTORS
330
2A
102
}
330
2A
100
AcDbVisualStyle
  2
GouraudWithEdges
 70
     3
177
     2
291
     1
 71
     2
176
     1
 72
     2
176
     1
 73
     1
176
     1
 90
        2
176
     1
 40
-0.6
176
     1
 41
30.0
176
     1
 62
     5
 63
     7
421
 16777215
176
     1
 74
     1
176
     1
 91
        4
176
     1
 64
     7
176
     1
 65
   257
176
     1
 75
     1
176
     1
175
     1
176
     1
 42
1.0
176
     1
 92
        0
176
     1
 66
   257
176
     1
 43
1.0
176
     1
 76
     1
176
     1
 77
     6
176
     1
 78
     2
176
     1
 67
     7
176
     1
 79
     5
176
     1
170
     0
176
     1
171
     0
176
     1
290
     0
176
     1
 93
       13
176
     1
 44
0.0
176
     1
173
     0
176
     1
  0
VISUALSTYLE
  5
38
102
{ACAD_REACTORS
330
2A
102
}
330
2A
100
AcDbVisualStyle
  2
Linepattern
 70
    14
177
     2
291
     1
 71
     2
176
     1
 72
     2
176
     1
 73
     0
176
     1
 90
        0
176
     1
 40
-0.6
176
     1
 41
-30.0
176
     1
 62
     5
 63
     7
421
 16777215
176
     1
 74
     1
176
     1
 91
        4
176
     1
 64
     7
176
     1
 65
   257
176
     1
 75
     7
176
     1
175
     7
176
     1
 42
1.0
176
     1
 92
        8
176
     1
 66
     7
176
     1
 43
1.0
176
     1
 76
     1
176
     1
 77
     6
176
     1
 78
     2
176
     1
 67
     7
176
     1
 79
     5
176
     1
170
     0
176
     1
171
     0
176
     1
290
     0
176
     1
 93
        1
176
     1
 44
0.0
176
     1
173
     0
176
     1
  0
VISUALSTYLE
  5
33
102
{ACAD_REACTORS
330
2A
102
}
330
2A
100
AcDbVisualStyle
  2
Realistic
 70
     8
177
     2
291
     0
 71
     2
176
     1
 72
     2
176
     1
 73
     0
176
     1
 90
        0
176
     1
 40
-0.6
176
     1
 41
-30.0
176
     1
 62
     5
 63
     7
421
 16777215
176
     1
 74
     1
176
     1
 91
        0
176
     1
 64
     7
176
     1
 65
   257
176
     1
 75
     1
176
     1
175
     1
176
     1
 42
1.0
176
     1
 92
        8
176
     1
 66
     8
424
  7895160
176
     1
 43
1.0
176
     1
 76
     1
176
     1
 77
     6
176
     1
 78
     2
176
     1
 67
     7
176
     1
 79
     5
176
     1
170
     0
176
     1
171
     0
176
     1
290
     0
176
     1
 93
       13
176
     1
 44
0.0
176
     1
173
     0
176
     1
  0
VISUALSTYLE
  5
37
102
{ACAD_REACTORS
330
2A
102
}
330
2A
100
AcDbVisualStyle
  2
Thicken
 70
    13
177
     2
291
     1
 71
     2
176
     1
 72
     2
176
     1
 73
     0
176
     1
 90
        0
176
     1
 40
-0.6
176
     1
 41
-30.0
176
     1
 62
     5
 63
     7
421
 16777215
176
     1
 74
     1
176
     1
 91
        4
176
     1
 64
     7
176
     1
 65
   257
176
     1
 75
     1
176
     1
175
     1
176
     1
 42
1.0
176
     1
 92
       12
176
     1
 66
     7
176
     1
 43
1.0
176
     1
 76
     1
176
     1
 77
     6
176
     1
 78
     2
176
     1
 67
     7
176
     1
 79
     5
176
     1
170
     0
176
     1
171
     0
176
     1
290
     0
176
     1
 93
        1
176
     1
 44
0.0
176
     1
173
     0
176
     1
  0
ENDSEC
  0
EOF
