  0
SECTION
  2
HEADER
  9
$ACADVER
  1
AC1024
  9
$ACADMAINTVER
 70
     6
  9
$DWGCODEPAGE
  3
ANSI_1252
  9
$INSBASE
 10
0.0
 20
0.0
 30
0.0
  9
$EXTMIN
 10
1062.498788683925
 20
-44.79761067598889
 30
0.0
  9
$EXTMAX
 10
1158.902095171683
 20
62.63005001241072
 30
0.0
  9
$LIMMIN
 10
0.0
 20
0.0
  9
$LIMMAX
 10
12.0
 20
9.0
  9
$ORTHOMODE
 70
     0
  9
$REGENMODE
 70
     1
  9
$FILLMODE
 70
     1
  9
$QTEXTMODE
 70
     0
  9
$MIRRTEXT
 70
     1
  9
$LTSCALE
 40
1.0
  9
$ATTMODE
 70
     1
  9
$TEXTSIZE
 40
0.2
  9
$TRACEWID
 40
0.05
  9
$TEXTSTYLE
  7
Standard
  9
$CLAYER
  8
0
  9
$CELTYPE
  6
ByLayer
  9
$CECOLOR
 62
   256
  9
$CELTSCALE
 40
1.0
  9
$DISPSILH
 70
     0
  9
$DIMSCALE
 40
1.0
  9
$DIMASZ
 40
0.18
  9
$DIMEXO
 40
0.0625
  9
$DIMDLI
 40
0.38
  9
$DIMRND
 40
0.0
  9
$DIMDLE
 40
0.0
  9
$DIMEXE
 40
0.18
  9
$DIMTP
 40
0.0
  9
$DIMTM
 40
0.0
  9
$DIMTXT
 40
0.18
  9
$DIMCEN
 40
0.09
  9
$DIMTSZ
 40
0.0
  9
$DIMTOL
 70
     0
  9
$DIMLIM
 70
     0
  9
$DIMTIH
 70
     1
  9
$DIMTOH
 70
     1
  9
$DIMSE1
 70
     0
  9
$DIMSE2
 70
     0
  9
$DIMTAD
 70
     0
  9
$DIMZIN
 70
     0
  9
$DIMBLK
  1

  9
$DIMASO
 70
     1
  9
$DIMSHO
 70
     1
  9
$DIMPOST
  1

  9
$DIMAPOST
  1

  9
$DIMALT
 70
     0
  9
$DIMALTD
 70
     2
  9
$DIMALTF
 40
25.4
  9
$DIMLFAC
 40
1.0
  9
$DIMTOFL
 70
     0
  9
$DIMTVP
 40
0.0
  9
$DIMTIX
 70
     0
  9
$DIMSOXD
 70
     0
  9
$DIMSAH
 70
     0
  9
$DIMBLK1
  1

  9
$DIMBLK2
  1

  9
$DIMSTYLE
  2
Standard
  9
$DIMCLRD
 70
     0
  9
$DIMCLRE
 70
     0
  9
$DIMCLRT
 70
     0
  9
$DIMTFAC
 40
1.0
  9
$DIMGAP
 40
0.09
  9
$DIMJUST
 70
     0
  9
$DIMSD1
 70
     0
  9
$DIMSD2
 70
     0
  9
$DIMTOLJ
 70
     1
  9
$DIMTZIN
 70
     0
  9
$DIMALTZ
 70
     0
  9
$DIMALTTZ
 70
     0
  9
$DIMUPT
 70
     0
  9
$DIMDEC
 70
     4
  9
$DIMTDEC
 70
     4
  9
$DIMALTU
 70
     2
  9
$DIMALTTD
 70
     2
  9
$DIMTXSTY
  7
Standard
  9
$DIMAUNIT
 70
     0
  9
$DIMADEC
 70
     0
  9
$DIMALTRND
 40
0.0
  9
$DIMAZIN
 70
     0
  9
$DIMDSEP
 70
    46
  9
$DIMATFIT
 70
     3
  9
$DIMFRAC
 70
     0
  9
$DIMLDRBLK
  1

  9
$DIMLUNIT
 70
     2
  9
$DIMLWD
 70
    -2
  9
$DIMLWE
 70
    -2
  9
$DIMTMOVE
 70
     0
  9
$DIMFXL
 40
1.0
  9
$DIMFXLON
 70
     0
  9
$DIMJOGANG
 40
0.78539816339745
  9
$DIMTFILL
 70
     0
  9
$DIMTFILLCLR
 70
     0
  9
$DIMARCSYM
 70
     0
  9
$DIMLTYPE
  6

  9
$DIMLTEX1
  6

  9
$DIMLTEX2
  6

  9
$DIMTXTDIRECTION
 70
     0
  9
$LUNITS
 70
     2
  9
$LUPREC
 70
     4
  9
$SKETCHINC
 40
0.1
  9
$FILLETRAD
 40
0.5
  9
$AUNITS
 70
     0
  9
$AUPREC
 70
     0
  9
$MENU
  1
.
  9
$ELEVATION
 40
0.0
  9
$PELEVATION
 40
0.0
  9
$THICKNESS
 40
0.0
  9
$LIMCHECK
 70
     0
  9
$CHAMFERA
 40
0.5
  9
$CHAMFERB
 40
0.5
  9
$CHAMFERC
 40
1.0
  9
$CHAMFERD
 40
0.0
  9
$SKPOLY
 70
     0
  9
$TDCREATE
 40
2457228.360783599
  9
$TDUCREATE
 40
2457228.277450266
  9
$TDUPDATE
 40
2457228.360784085
  9
$TDUUPDATE
 40
2457228.277450752
  9
$TDINDWG
 40
0.0000000116
  9
$TDUSRTIMER
 40
0.0000000116
  9
$USRTIMER
 70
     1
  9
$ANGBASE
 50
0.0
  9
$ANGDIR
 70
     0
  9
$PDMODE
 70
     0
  9
$PDSIZE
 40
0.0
  9
$PLINEWID
 40
0.0
  9
$SPLFRAME
 70
     0
  9
$SPLINETYPE
 70
     6
  9
$SPLINESEGS
 70
     8
  9
$HANDSEED
  5
19B
  9
$SURFTAB1
 70
     6
  9
$SURFTAB2
 70
     6
  9
$SURFTYPE
 70
     6
  9
$SURFU
 70
     6
  9
$SURFV
 70
     6
  9
$UCSBASE
  2

  9
$UCSNAME
  2

  9
$UCSORG
 10
0.0
 20
0.0
 30
0.0
  9
$UCSXDIR
 10
1.0
 20
0.0
 30
0.0
  9
$UCSYDIR
 10
0.0
 20
1.0
 30
0.0
  9
$UCSORTHOREF
  2

  9
$UCSORTHOVIEW
 70
     0
  9
$UCSORGTOP
 10
0.0
 20
0.0
 30
0.0
  9
$UCSORGBOTTOM
 10
0.0
 20
0.0
 30
0.0
  9
$UCSORGLEFT
 10
0.0
 20
0.0
 30
0.0
  9
$UCSORGRIGHT
 10
0.0
 20
0.0
 30
0.0
  9
$UCSORGFRONT
 10
0.0
 20
0.0
 30
0.0
  9
$UCSORGBACK
 10
0.0
 20
0.0
 30
0.0
  9
$PUCSBASE
  2

  9
$PUCSNAME
  2

  9
$PUCSORG
 10
0.0
 20
0.0
 30
0.0
  9
$PUCSXDIR
 10
1.0
 20
0.0
 30
0.0
  9
$PUCSYDIR
 10
0.0
 20
1.0
 30
0.0
  9
$PUCSORTHOREF
  2

  9
$PUCSORTHOVIEW
 70
     0
  9
$PUCSORGTOP
 10
0.0
 20
0.0
 30
0.0
  9
$PUCSORGBOTTOM
 10
0.0
 20
0.0
 30
0.0
  9
$PUCSORGLEFT
 10
0.0
 20
0.0
 30
0.0
  9
$PUCSORGRIGHT
 10
0.0
 20
0.0
 30
0.0
  9
$PUCSORGFRONT
 10
0.0
 20
0.0
 30
0.0
  9
$PUCSORGBACK
 10
0.0
 20
0.0
 30
0.0
  9
$USERI1
 70
     0
  9
$USERI2
 70
     0
  9
$USERI3
 70
     0
  9
$USERI4
 70
     0
  9
$USERI5
 70
     0
  9
$USERR1
 40
18.1
  9
$USERR2
 40
0.0
  9
$USERR3
 40
0.0
  9
$USERR4
 40
0.0
  9
$USERR5
 40
0.0
  9
$WORLDVIEW
 70
     1
  9
$SHADEDGE
 70
     3
  9
$SHADEDIF
 70
    70
  9
$TILEMODE
 70
     1
  9
$MAXACTVP
 70
    64
  9
$PINSBASE
 10
0.0
 20
0.0
 30
0.0
  9
$PLIMCHECK
 70
     0
  9
$PEXTMIN
 10
1.00000000000000E+20
 20
1.00000000000000E+20
 30
1.00000000000000E+20
  9
$PEXTMAX
 10
-1.00000000000000E+20
 20
-1.00000000000000E+20
 30
-1.00000000000000E+20
  9
$PLIMMIN
 10
0.0
 20
0.0
  9
$PLIMMAX
 10
12.0
 20
9.0
  9
$UNITMODE
 70
     0
  9
$VISRETAIN
 70
     1
  9
$PLINEGEN
 70
     0
  9
$PSLTSCALE
 70
     1
  9
$TREEDEPTH
 70
  3020
  9
$CMLSTYLE
  2
Standard
  9
$CMLJUST
 70
     0
  9
$CMLSCALE
 40
1.0
  9
$PROXYGRAPHICS
 70
     1
  9
$MEASUREMENT
 70
     1
  9
$CELWEIGHT
370
    -1
  9
$ENDCAPS
280
     0
  9
$JOINSTYLE
280
     0
  9
$LWDISPLAY
290
     0
  9
$INSUNITS
 70
     4
  9
$HYPERLINKBASE
  1

  9
$STYLESHEET
  1

  9
$XEDIT
290
     1
  9
$CEPSNTYPE
380
     0
  9
$PSTYLEMODE
290
     1
  9
$FINGERPRINTGUID
  2
{30BB78B0-6F83-4EF8-A41D-48ECAE192116}
  9
$VERSIONGUID
  2
{FAEB1C32-E019-11D5-929B-00C0DF256EC4}
  9
$EXTNAMES
290
     1
  9
$PSVPSCALE
 40
0.0
  9
$OLESTARTUP
290
     0
  9
$SORTENTS
280
   127
  9
$INDEXCTL
280
     0
  9
$HIDETEXT
280
     1
  9
$XCLIPFRAME
280
     2
  9
$HALOGAP
280
     0
  9
$OBSCOLOR
 70
   257
  9
$OBSLTYPE
280
     0
  9
$INTERSECTIONDISPLAY
280
     0
  9
$INTERSECTIONCOLOR
 70
   257
  9
$DIMASSOC
280
     2
  9
$PROJECTNAME
  1

  9
$CAMERADISPLAY
290
     0
  9
$LENSLENGTH
 40
50.0
  9
$CAMERAHEIGHT
 40
0.0
  9
$STEPSPERSEC
 40
2.0
  9
$STEPSIZE
 40
6.0
  9
$3DDWFPREC
 40
2.0
  9
$PSOLWIDTH
 40
0.25
  9
$PSOLHEIGHT
 40
4.0
  9
$LOFTANG1
 40
1.5707963267949
  9
$LOFTANG2
 40
1.5707963267949
  9
$LOFTMAG1
 40
0.0
  9
$LOFTMAG2
 40
0.0
  9
$LOFTPARAM
 70
     7
  9
$LOFTNORMALS
280
     1
  9
$LATITUDE
 40
37.795
  9
$LONGITUDE
 40
-122.394
  9
$NORTHDIRECTION
 40
0.0
  9
$TIMEZONE
 70
 -8000
  9
$LIGHTGLYPHDISPLAY
280
     1
  9
$TILEMODELIGHTSYNCH
280
     1
  9
$SOLIDHIST
280
     1
  9
$SHOWHIST
280
     1
  9
$DWFFRAME
280
     2
  9
$DGNFRAME
280
     2
  9
$REALWORLDSCALE
290
     1
  9
$INTERFERECOLOR
 62
   256
  9
$CSHADOW
280
     0
  9
$SHADOWPLANELOCATION
 40
0.0
  0
ENDSEC
  0
SECTION
  2
CLASSES
  0
CLASS
  1
ACDBDICTIONARYWDFLT
  2
AcDbDictionaryWithDefault
  3
ObjectDBX Classes
 90
        0
 91
        4
280
     0
281
     0
  0
CLASS
  1
VISUALSTYLE
  2
AcDbVisualStyle
  3
ObjectDBX Classes
 90
     4095
 91
        4
280
     0
281
     0
  0
CLASS
  1
MATERIAL
  2
AcDbMaterial
  3
ObjectDBX Classes
 90
     1153
 91
        4
280
     0
281
     0
  0
ENDSEC
  0
SECTION
  2
TABLES
  0
TABLE
  2
VPORT
  5
8
330
0
100
AcDbSymbolTable
 70
     1
  0
VPORT
  5
29
330
8
100
AcDbSymbolTableRecord
100
AcDbViewportTableRecord
  2
*Active
 70
     0
 10
0.0
 20
0.0
 11
1.0
 21
1.0
 12
1110.700441927804
 22
8.91621966821091
 13
0.0
 23
0.0
 14
0.5
 24
0.5
 15
0.5
 25
0.5
 16
0.0
 26
0.0
 36
1.0
 17
0.0
 27
0.0
 37
0.0
 40
118.1704267572396
 41
1.60267857142857
 42
50.0
 43
0.0
 44
0.0
 50
0.0
 51
0.0
 71
     0
 72
   100
 73
     1
 74
     3
 75
     0
 76
     0
 77
     0
 78
     0
281
     0
 65
     1
110
0.0
120
0.0
130
0.0
111
1.0
121
0.0
131
0.0
112
0.0
122
1.0
132
0.0
 79
     0
146
0.0
 60
     3
 61
     5
292
     1
282
     1
141
0.0
142
0.0
 63
   250
  0
ENDTAB
  0
TABLE
  2
LTYPE
  5
5
330
0
100
AcDbSymbolTable
 70
    10
  0
LTYPE
  5
14
330
5
100
AcDbSymbolTableRecord
100
AcDbLinetypeTableRecord
  2
ByBlock
 70
     0
  3

 72
    65
 73
     0
 40
0.0
  0
LTYPE
  5
15
330
5
100
AcDbSymbolTableRecord
100
AcDbLinetypeTableRecord
  2
ByLayer
 70
     0
  3

 72
    65
 73
     0
 40
0.0
  0
LTYPE
  5
16
330
5
100
AcDbSymbolTableRecord
100
AcDbLinetypeTableRecord
  2
Continuous
 70
     0
  3
Solid line
 72
    65
 73
     0
 40
0.0
  0
LTYPE
  5
3F
330
5
100
AcDbSymbolTableRecord
100
AcDbLinetypeTableRecord
  2
DASHED
 70
     0
  3
Dashed
 72
    65
 73
     2
 40
15.0
 49
7.0
 74
     0
 49
-8.0
 74
     0
  0
LTYPE
  5
40
330
5
100
AcDbSymbolTableRecord
100
AcDbLinetypeTableRecord
  2
DOTTED
 70
     0
  3
Dotted
 72
    65
 73
     2
 40
1.0
 49
0.0
 74
     0
 49
-1.0
 74
     0
  0
LTYPE
  5
41
330
5
100
AcDbSymbolTableRecord
100
AcDbLinetypeTableRecord
  2
DOT_CENTER
 70
     0
  3
Dot_Center
 72
    65
 73
     4
 40
14.0
 49
12.0
 74
     0
 49
-1.0
 74
     0
 49
0.0
 74
     0
 49
-1.0
 74
     0
  0
LTYPE
  5
42
330
5
100
AcDbSymbolTableRecord
100
AcDbLinetypeTableRecord
  2
LONG_DASHED
 70
     0
  3
Long_Dashed
 72
    65
 73
     2
 40
15.0
 49
10.0
 74
     0
 49
-5.0
 74
     0
  0
LTYPE
  5
43
330
5
100
AcDbSymbolTableRecord
100
AcDbLinetypeTableRecord
  2
DASH_CENTER
 70
     0
  3
Dash_Center
 72
    65
 73
     4
 40
14.0
 49
11.0
 74
     0
 49
-1.0
 74
     0
 49
1.0
 74
     0
 49
-1.0
 74
     0
  0
LTYPE
  5
44
330
5
100
AcDbSymbolTableRecord
100
AcDbLinetypeTableRecord
  2
PHANTOM
 70
     0
  3
Phantom
 72
    65
 73
     6
 40
13.0
 49
10.0
 74
     0
 49
-1.0
 74
     0
 49
0.0
 74
     0
 49
-1.0
 74
     0
 49
0.0
 74
     0
 49
-1.0
 74
     0
  0
LTYPE
  5
45
330
5
100
AcDbSymbolTableRecord
100
AcDbLinetypeTableRecord
  2
CENTER_DASH_DASH
 70
     0
  3
Center_Dash_Dash
 72
    65
 73
     6
 40
14.0
 49
9.0
 74
     0
 49
-1.0
 74
     0
 49
1.0
 74
     0
 49
-1.0
 74
     0
 49
1.0
 74
     0
 49
-1.0
 74
     0
  0
LTYPE
  5
46
330
5
100
AcDbSymbolTableRecord
100
AcDbLinetypeTableRecord
  2
HIDDEN
 70
     0
  3
HIDDEN
 72
    65
 73
     2
 40
4.0
 49
2.0
 74
     0
 49
-2.0
 74
     0
  0
LTYPE
  5
47
330
5
100
AcDbSymbolTableRecord
100
AcDbLinetypeTableRecord
  2
CENTER_1
 70
     0
  3
CENTER_1
 72
    65
 73
     4
 40
15.0
 49
9.0
 74
     0
 49
-2.0
 74
     0
 49
2.0
 74
     0
 49
-2.0
 74
     0
  0
ENDTAB
  0
TABLE
  2
LAYER
  5
2
330
0
100
AcDbSymbolTable
 70
     7
  0
LAYER
  5
10
330
2
100
AcDbSymbolTableRecord
100
AcDbLayerTableRecord
  2
0
 70
     0
 62
     7
  6
Continuous
370
    -3
390
F
347
3E
  0
LAYER
  5
48
330
2
100
AcDbSymbolTableRecord
100
AcDbLayerTableRecord
  2
1
 70
     0
 62
     7
  6
Continuous
370
    -3
390
F
347
3E
  0
LAYER
  5
49
330
2
100
AcDbSymbolTableRecord
100
AcDbLayerTableRecord
  2
A_ACHSEN
 70
     0
 62
     7
  6
Continuous
370
    -3
390
F
347
3E
  0
LAYER
  5
4A
330
2
100
AcDbSymbolTableRecord
100
AcDbLayerTableRecord
  2
A_BEMASSUNGEN
 70
     0
 62
     7
  6
Continuous
370
    -3
390
F
347
3E
  0
LAYER
  5
4B
330
2
100
AcDbSymbolTableRecord
100
AcDbLayerTableRecord
  2
A_RUNDUNGEN
 70
     0
 62
     7
  6
Continuous
370
    -3
390
F
347
3E
  0
LAYER
  5
4C
330
2
100
AcDbSymbolTableRecord
100
AcDbLayerTableRecord
  2
DEFAULT_1
 70
     0
 62
     7
  6
Continuous
370
    -3
390
F
347
3E
  0
LAYER
  5
4D
330
2
100
AcDbSymbolTableRecord
100
AcDbLayerTableRecord
  2
DEFAULT_2
 70
     0
 62
     7
  6
Continuous
370
    -3
390
F
347
3E
  0
ENDTAB
  0
TABLE
  2
STYLE
  5
3
330
0
100
AcDbSymbolTable
 70
     1
  0
STYLE
  5
11
330
3
100
AcDbSymbolTableRecord
100
AcDbTextStyleTableRecord
  2
Standard
 70
     0
 40
0.0
 41
1.0
 50
0.0
 71
     0
 42
0.2
  3
txt
  4

  0
ENDTAB
  0
TABLE
  2
VIEW
  5
6
330
0
100
AcDbSymbolTable
 70
     0
  0
ENDTAB
  0
TABLE
  2
UCS
  5
7
330
0
100
AcDbSymbolTable
 70
     0
  0
ENDTAB
  0
TABLE
  2
APPID
  5
9
330
0
100
AcDbSymbolTable
 70
     1
  0
APPID
  5
12
330
9
100
AcDbSymbolTableRecord
100
AcDbRegAppTableRecord
  2
ACAD
 70
     0
  0
ENDTAB
  0
TABLE
  2
DIMSTYLE
  5
A
330
0
100
AcDbSymbolTable
 70
     1
100
AcDbDimStyleTable
  0
DIMSTYLE
105
27
330
A
100
AcDbSymbolTableRecord
100
AcDbDimStyleTableRecord
  2
Standard
 70
     0
178
     0
340
11
  0
ENDTAB
  0
TABLE
  2
BLOCK_RECORD
  5
1
330
0
100
AcDbSymbolTable
 70
     1
  0
BLOCK_RECORD
  5
1F
330
1
100
AcDbSymbolTableRecord
100
AcDbBlockTableRecord
  2
*Model_Space
340
22
 70
     0
280
     1
281
     0
  0
BLOCK_RECORD
  5
1B
330
1
100
AcDbSymbolTableRecord
100
AcDbBlockTableRecord
  2
*Paper_Space
340
1E
 70
     0
280
     1
281
     0
  0
BLOCK_RECORD
  5
23
330
1
100
AcDbSymbolTableRecord
100
AcDbBlockTableRecord
  2
*Paper_Space0
340
26
 70
     0
280
     1
281
     0
  0
ENDTAB
  0
ENDSEC
  0
SECTION
  2
BLOCKS
  0
BLOCK
  5
20
330
1F
100
AcDbEntity
  8
0
100
AcDbBlockBegin
  2
*Model_Space
 70
     0
 10
0.0
 20
0.0
 30
0.0
  3
*Model_Space
  1

  0
ENDBLK
  5
21
330
1F
100
AcDbEntity
  8
0
100
AcDbBlockEnd
  0
BLOCK
  5
1C
330
1B
100
AcDbEntity
 67
     1
  8
0
100
AcDbBlockBegin
  2
*Paper_Space
 70
     0
 10
0.0
 20
0.0
 30
0.0
  3
*Paper_Space
  1

  0
ENDBLK
  5
1D
330
1B
100
AcDbEntity
 67
     1
  8
0
100
AcDbBlockEnd
  0
BLOCK
  5
24
330
23
100
AcDbEntity
  8
0
100
AcDbBlockBegin
  2
*Paper_Space0
 70
     0
 10
0.0
 20
0.0
 30
0.0
  3
*Paper_Space0
  1

  0
ENDBLK
  5
25
330
23
100
AcDbEntity
  8
0
100
AcDbBlockEnd
  0
ENDSEC
  0
SECTION
  2
ENTITIES
  0
POINT
  5
4E
330
1F
100
AcDbEntity
  8
1
 62
     3
 60
     1
100
AcDbPoint
 10
1127.613080967702
 20
14.42202340802843
 30
0.0
  0
POINT
  5
4F
330
1F
100
AcDbEntity
  8
A_BEMASSUNGEN
 62
     7
100
AcDbPoint
 10
1088.362640133215
 20
-8.90906826533648
 30
0.0
  0
POINT
  5
50
330
1F
100
AcDbEntity
  8
A_BEMASSUNGEN
 62
     7
100
AcDbPoint
 10
1088.362640133215
 20
-8.90906826533648
 30
0.0
  0
POINT
  5
51
330
1F
100
AcDbEntity
  8
1
 62
     3
 60
     1
100
AcDbPoint
 10
1132.402095171683
 20
12.64765030186172
 30
0.0
  0
POINT
  5
52
330
1F
100
AcDbEntity
  8
A_BEMASSUNGEN
 62
     7
100
AcDbPoint
 10
1122.818652925777
 20
-22.78980530261698
 30
0.0
  0
POINT
  5
53
330
1F
100
AcDbEntity
  8
A_BEMASSUNGEN
 62
     7
100
AcDbPoint
 10
1144.950575046966
 20
-4.01925261438566
 30
0.0
  0
POINT
  5
54
330
1F
100
AcDbEntity
  8
A_BEMASSUNGEN
 62
     7
100
AcDbPoint
 10
1117.012597852757
 20
-27.00892541101033
 30
0.0
  0
POINT
  5
55
330
1F
100
AcDbEntity
  8
A_BEMASSUNGEN
 62
     7
100
AcDbPoint
 10
1147.040859150364
 20
-2.68659177834307
 30
0.0
  0
POINT
  5
56
330
1F
100
AcDbEntity
  8
A_BEMASSUNGEN
 62
     7
100
AcDbPoint
 10
1144.111077122585
 20
2.54970245610424
 30
0.0
  0
POINT
  5
57
330
1F
100
AcDbEntity
  8
A_BEMASSUNGEN
 62
     7
100
AcDbPoint
 10
1121.920100241806
 20
17.63481250133441
 30
0.0
  0
POINT
  5
58
330
1F
100
AcDbEntity
  8
A_BEMASSUNGEN
 62
     7
100
AcDbPoint
 10
1126.003138372918
 20
16.48155639800006
 30
0.0
  0
POINT
  5
59
330
1F
100
AcDbEntity
  8
A_BEMASSUNGEN
 62
     7
100
AcDbPoint
 10
1148.194115253698
 20
1.39644635276988
 30
0.0
  0
POINT
  5
5A
330
1F
100
AcDbEntity
  8
A_BEMASSUNGEN
 62
     7
100
AcDbPoint
 10
1148.194115253698
 20
1.39644635276988
 30
0.0
  0
LINE
  5
5B
330
1F
100
AcDbEntity
  8
1
  6
PHANTOM
 62
     2
100
AcDbLine
 10
1095.902095171682
 20
60.14765030186169
 30
0.0
 11
1095.902095171682
 21
62.63005001241072
 31
0.0
  0
LINE
  5
5C
330
1F
100
AcDbEntity
  8
A_RUNDUNGEN
  6
Continuous
 62
     7
100
AcDbLine
 10
1128.602053518187
 20
30.6476503018617
 30
0.0
 11
1128.602052592583
 21
31.04763319786176
 31
0.0
  0
LINE
  5
5D
330
1F
100
AcDbEntity
  8
A_RUNDUNGEN
  6
Continuous
 62
     7
100
AcDbLine
 10
1118.504086584306
 20
30.14760983033734
 30
0.0
 11
1128.602054675283
 21
30.14763319786172
 31
0.0
  0
LINE
  5
5E
330
1F
100
AcDbEntity
  8
A_RUNDUNGEN
  6
Continuous
 62
     7
100
AcDbLine
 10
1117.102056657782
 20
29.29089348878094
 30
0.0
 11
1117.102055832283
 21
29.64760658596177
 31
0.0
  0
LINE
  5
5F
330
1F
100
AcDbEntity
  8
A_RUNDUNGEN
  6
Continuous
 62
     7
100
AcDbLine
 10
1116.328062836268
 20
28.53071973139591
 30
0.0
 11
1116.671644855583
 21
28.57900784596174
 31
0.0
  0
LINE
  5
60
330
1F
100
AcDbEntity
  8
1
  6
Continuous
 62
     7
100
AcDbLine
 10
1145.902095171683
 20
18.69034783277049
 30
0.0
 11
1145.902095171683
 21
7.64766297321094
 31
0.0
  0
LINE
  5
61
330
1F
100
AcDbEntity
  8
1
  6
Continuous
 62
     7
100
AcDbLine
 10
1144.102095171683
 20
19.3292350525141
 30
0.0
 11
1144.102095171683
 21
10.83930808386475
 31
0.0
  0
LINE
  5
62
330
1F
100
AcDbEntity
  8
0
  6
DASHED
 62
     2
100
AcDbLine
 10
1127.513393636988
 20
15.84523515764515
 30
0.0
 11
1127.601190440283
 21
16.46995236296172
 31
0.0
  0
LINE
  5
63
330
1F
100
AcDbEntity
  8
0
  6
DASHED
 62
     2
100
AcDbLine
 10
1121.914789384939
 20
18.2789377391088
 30
0.0
 11
1121.215497104959
 21
18.37721520964904
 31
0.0
  0
LINE
  5
64
330
1F
100
AcDbEntity
  8
0
  6
DASHED
 62
     2
100
AcDbLine
 10
1121.072714118845
 20
12.28782688593373
 30
0.0
 11
1125.556837298527
 21
11.65763505286398
 31
0.0
  0
LINE
  5
65
330
1F
100
AcDbEntity
  8
0
  6
Continuous
 62
     7
100
AcDbLine
 10
1115.889481657262
 20
13.01627047129113
 30
0.0
 11
1120.371416779881
 21
12.38638614442396
 31
0.0
  0
LINE
  5
66
330
1F
100
AcDbEntity
  8
0
  6
Continuous
 62
     7
100
AcDbLine
 10
1114.902095171683
 20
15.92736274570753
 30
0.0
 11
1114.659193777283
 21
14.19900049776172
 31
0.0
  0
LINE
  5
67
330
1F
100
AcDbEntity
  8
0
  6
Continuous
 62
     7
100
AcDbLine
 10
1120.302187604208
 20
21.78965871685127
 30
0.0
 11
1116.352269725083
 21
21.23452464016171
 31
0.0
  0
LINE
  5
68
330
1F
100
AcDbEntity
  8
0
  6
Continuous
 62
     7
100
AcDbLine
 10
1127.260729890994
 20
26.24765030186171
 30
0.0
 11
1127.601173419383
 21
23.82530940076177
 31
0.0
  0
LINE
  5
69
330
1F
100
AcDbEntity
  8
0
  6
Continuous
 62
     7
100
AcDbLine
 10
1114.892079048814
 20
24.43896849068233
 30
0.0
 11
1114.659166246183
 21
26.09620136826172
 31
0.0
  0
LINE
  5
6A
330
1F
100
AcDbEntity
  8
1
  6
Continuous
 62
     7
100
AcDbLine
 10
1145.902095171683
 20
7.64766297321094
 30
0.0
 11
1145.902095171683
 21
7.59269032839207
 31
0.0
  0
LINE
  5
6B
330
1F
100
AcDbEntity
  8
A_RUNDUNGEN
  6
Continuous
 62
     7
100
AcDbLine
 10
1144.102095171683
 20
31.54766906622362
 30
0.0
 11
1145.902051435483
 21
31.54767323146169
 31
0.0
  0
LINE
  5
6C
330
1F
100
AcDbEntity
  8
1
  6
Continuous
 62
     7
100
AcDbLine
 10
1144.102095171683
 20
31.54766906622362
 30
0.0
 11
1144.102095171683
 21
19.3292350525141
 31
0.0
  0
LINE
  5
6D
330
1F
100
AcDbEntity
  8
1
  6
Continuous
 62
     7
100
AcDbLine
 10
1144.401955438782
 20
33.64765439076172
 30
0.0
 11
1109.902046807045
 21
33.64774872968589
 31
0.0
  0
LINE
  5
6E
330
1F
100
AcDbEntity
  8
1
  6
Continuous
 62
     7
100
AcDbLine
 10
1145.902095171683
 20
33.64765439076172
 30
0.0
 11
1145.902095171683
 21
33.5366534839713
 31
0.0
  0
LINE
  5
6F
330
1F
100
AcDbEntity
  8
1
  6
Continuous
 62
     7
100
AcDbLine
 10
1145.902095171683
 20
33.5366534839713
 30
0.0
 11
1145.902095171683
 21
33.64765439076172
 31
0.0
  0
LINE
  5
70
330
1F
100
AcDbEntity
  8
1
  6
Continuous
 62
     7
100
AcDbLine
 10
1145.902095171683
 20
33.5366534839713
 30
0.0
 11
1145.902095171683
 21
31.5476732315629
 31
0.0
  0
LINE
  5
71
330
1F
100
AcDbEntity
  8
1
  6
Continuous
 62
     7
100
AcDbLine
 10
1145.902095171683
 20
33.5366534839713
 30
0.0
 11
1145.902095171683
 21
32.64765030186172
 31
0.0
  0
LINE
  5
72
330
1F
100
AcDbEntity
  8
1
  6
Continuous
 62
     7
100
AcDbLine
 10
1145.902095171683
 20
34.14765030186172
 30
0.0
 11
1145.902095171683
 21
33.64765439076172
 31
0.0
  0
LINE
  5
73
330
1F
100
AcDbEntity
  8
1
  6
Continuous
 62
     7
100
AcDbLine
 10
1158.902095171683
 20
34.14765030186172
 30
0.0
 11
1145.902095171683
 21
34.14765030186172
 31
0.0
  0
LINE
  5
74
330
1F
100
AcDbEntity
  8
1
  6
Continuous
 62
     7
100
AcDbLine
 10
1158.902095171683
 20
60.14765030186169
 30
0.0
 11
1158.902095171683
 21
34.14765030186172
 31
0.0
  0
LINE
  5
75
330
1F
100
AcDbEntity
  8
1
  6
Continuous
 62
     7
100
AcDbLine
 10
1138.902095171683
 20
4.14765030186172
 30
0.0
 11
1095.902095171683
 21
4.14765030186172
 31
0.0
  0
LINE
  5
76
330
1F
100
AcDbEntity
  8
1
  6
Continuous
 62
     7
100
AcDbLine
 10
1138.902095171683
 20
4.14765030186172
 30
0.0
 11
1095.902095171683
 21
4.14765030186172
 31
0.0
  0
LINE
  5
77
330
1F
100
AcDbEntity
  8
1
  6
Continuous
 62
     7
100
AcDbLine
 10
1138.902095171683
 20
7.64760862155449
 30
0.0
 11
1138.902095171683
 21
4.14765030186172
 31
0.0
  0
LINE
  5
78
330
1F
100
AcDbEntity
  8
1
  6
Continuous
 62
     7
100
AcDbLine
 10
1109.902106741803
 20
7.6477487298038
 30
0.0
 11
1138.902095171683
 21
7.64760862155449
 31
0.0
  0
LINE
  5
79
330
1F
100
AcDbEntity
  8
1
  6
Continuous
 62
     7
100
AcDbLine
 10
1109.902046807045
 20
33.64774872968589
 30
0.0
 11
1109.902106741803
 21
7.6477487298038
 31
0.0
  0
LINE
  5
7A
330
1F
100
AcDbEntity
  8
1
  6
Continuous
 62
     7
100
AcDbLine
 10
1145.902095171683
 20
33.64765439076172
 30
0.0
 11
1109.902046807045
 21
33.64774872968589
 31
0.0
  0
LINE
  5
7B
330
1F
100
AcDbEntity
  8
1
  6
Continuous
 62
     7
100
AcDbLine
 10
1138.902095171683
 20
4.14765030186172
 30
0.0
 11
1095.902095171683
 21
4.14765030186172
 31
0.0
  0
LINE
  5
7C
330
1F
100
AcDbEntity
  8
1
  6
Continuous
 62
     7
100
AcDbLine
 10
1138.902095171683
 20
7.64760862155449
 30
0.0
 11
1138.902095171683
 21
4.14765030186172
 31
0.0
  0
LINE
  5
7D
330
1F
100
AcDbEntity
  8
A_RUNDUNGEN
  6
Continuous
 62
     7
100
AcDbLine
 10
1138.902095171683
 20
7.64760862155449
 30
0.0
 11
1128.102128600583
 21
7.64756113556169
 31
0.0
  0
LINE
  5
7E
330
1F
100
AcDbEntity
  8
1
  6
Continuous
 62
     7
100
AcDbLine
 10
1111.401955439555
 20
33.64775875773504
 30
0.0
 11
1109.902046807045
 21
33.64774872968589
 31
0.0
  0
LINE
  5
7F
330
1F
100
AcDbEntity
  8
1
  6
Continuous
 62
     7
100
AcDbLine
 10
1140.401955440975
 20
33.64763962636177
 30
0.0
 11
1140.401961456083
 21
32.64795264516172
 31
0.0
  0
LINE
  5
80
330
1F
100
AcDbEntity
  8
1
  6
Continuous
 62
     7
100
AcDbLine
 10
1109.902106741803
 20
7.6477487298038
 30
0.0
 11
1111.40212860096
 21
7.64775875863008
 31
0.0
  0
LINE
  5
81
330
1F
100
AcDbEntity
  8
1
  6
Continuous
 62
     7
100
AcDbLine
 10
1109.902046807045
 20
33.64774872968589
 30
0.0
 11
1109.902106741803
 21
7.6477487298038
 31
0.0
  0
LINE
  5
82
330
1F
100
AcDbEntity
  8
A_ACHSEN
  6
CENTER_1
 62
     2
100
AcDbLine
 10
1135.402095171683
 20
12.64765030186172
 30
0.0
 11
1137.427095171683
 21
12.64765030186172
 31
0.0
  0
LINE
  5
83
330
1F
100
AcDbEntity
  8
A_ACHSEN
  6
CENTER_1
 62
     2
100
AcDbLine
 10
1135.402060460483
 20
27.64760919966173
 30
0.0
 11
1136.652060460483
 21
27.64760919966173
 31
0.0
  0
LINE
  5
84
330
1F
100
AcDbEntity
  8
1
  6
Continuous
 62
     7
100
AcDbLine
 10
1140.401955438882
 20
33.6479526451617
 30
0.0
 11
1140.401955440975
 21
33.64763962636177
 31
0.0
  0
LINE
  5
85
330
1F
100
AcDbEntity
  8
1
  6
Continuous
 62
     7
100
AcDbLine
 10
1138.478731942583
 20
31.94793978686172
 30
0.0
 11
1140.401961456083
 21
32.64795264516172
 31
0.0
  0
LINE
  5
86
330
1F
100
AcDbEntity
  8
1
  6
Continuous
 62
     7
100
AcDbLine
 10
1145.902095171683
 20
33.64765439076172
 30
0.0
 11
1145.902095171683
 21
33.5366534839713
 31
0.0
  0
LINE
  5
87
330
1F
100
AcDbEntity
  8
1
  6
Continuous
 62
     7
100
AcDbLine
 10
1145.902095171683
 20
33.64765439076172
 30
0.0
 11
1145.902095171683
 21
33.5366534839713
 31
0.0
  0
LINE
  5
88
330
1F
100
AcDbEntity
  8
1
  6
Continuous
 62
     7
100
AcDbLine
 10
1144.401955438782
 20
33.64765439076172
 30
0.0
 11
1145.902095171683
 21
33.64765439076172
 31
0.0
  0
LINE
  5
89
330
1F
100
AcDbEntity
  8
A_ACHSEN
  6
CENTER_1
 62
     2
100
AcDbLine
 10
1134.402095172105
 20
27.64760919966173
 30
0.0
 11
1135.402060460483
 21
27.64760919966173
 31
0.0
  0
LINE
  5
8A
330
1F
100
AcDbEntity
  8
A_ACHSEN
  6
DOT_CENTER
 62
     2
100
AcDbLine
 10
1134.402095171683
 20
12.64765030186172
 30
0.0
 11
1135.402095171683
 21
12.64765030186172
 31
0.0
  0
LINE
  5
8B
330
1F
100
AcDbEntity
  8
0
  6
Continuous
 62
     7
100
AcDbLine
 10
1115.222835555283
 20
18.20958748046169
 30
0.0
 11
1114.902095171683
 21
15.92736274570753
 31
0.0
  0
LINE
  5
8C
330
1F
100
AcDbEntity
  8
0
  6
Continuous
 62
     7
100
AcDbLine
 10
1110.401962125351
 20
32.54775207198904
 30
0.0
 11
1110.402121915214
 21
8.64775207283939
 31
0.0
  0
LINE
  5
8D
330
1F
100
AcDbEntity
  8
0
  6
Continuous
 62
     7
100
AcDbLine
 10
1111.702119240883
 20
9.04776076426177
 30
0.0
 11
1111.701966136782
 21
31.94776076356172
 31
0.0
  0
LINE
  5
8E
330
1F
100
AcDbEntity
  8
0
  6
Continuous
 62
     7
100
AcDbLine
 10
1111.902116566582
 20
9.44776210146173
 30
0.0
 11
1111.901966805383
 21
31.84776210076169
 31
0.0
  0
LINE
  5
8F
330
1F
100
AcDbEntity
  8
0
  6
Continuous
 62
     7
100
AcDbLine
 10
1113.101983519783
 20
29.34777012376176
 30
0.0
 11
1113.102105200783
 21
11.14777012436176
 31
0.0
  0
LINE
  5
90
330
1F
100
AcDbEntity
  8
A_RUNDUNGEN
  6
Continuous
 62
     7
100
AcDbLine
 10
1113.602095322982
 20
12.58224185576174
 30
0.0
 11
1113.602060309283
 21
27.71295511776171
 31
0.0
  0
LINE
  5
91
330
1F
100
AcDbEntity
  8
0
  6
Continuous
 62
     7
100
AcDbLine
 10
1116.201966805283
 20
31.84779084956174
 30
0.0
 11
1116.201980176783
 21
29.84779084956173
 31
0.0
  0
LINE
  5
92
330
1F
100
AcDbEntity
  8
0
  6
Continuous
 62
     7
100
AcDbLine
 10
1116.202108543582
 20
10.64779085026171
 30
0.0
 11
1116.202116566483
 21
9.44779085026173
 31
0.0
  0
LINE
  5
93
330
1F
100
AcDbEntity
  8
A_RUNDUNGEN
  6
Continuous
 62
     7
100
AcDbLine
 10
1117.102099799883
 20
10.64760658616174
 30
0.0
 11
1117.102098472783
 21
11.22107029586172
 31
0.0
  0
LINE
  5
94
330
1F
100
AcDbEntity
  8
A_RUNDUNGEN
  6
Continuous
 62
     7
100
AcDbLine
 10
1117.102057159382
 20
29.07414287636172
 30
0.0
 11
1117.102056657782
 21
29.29089348878094
 31
0.0
  0
LINE
  5
95
330
1F
100
AcDbEntity
  8
0
  6
Continuous
 62
     7
100
AcDbLine
 10
1118.402117234983
 20
9.34742890326172
 30
0.0
 11
1118.402116565883
 21
9.44750975956177
 31
0.0
  0
LINE
  5
96
330
1F
100
AcDbEntity
  8
0
  6
Continuous
 62
     7
100
AcDbLine
 10
1127.037548662183
 20
12.45936538026174
 30
0.0
 11
1127.252719270233
 21
13.99040951722156
 31
0.0
  0
LINE
  5
97
330
1F
100
AcDbEntity
  8
0
  6
Continuous
 62
     7
100
AcDbLine
 10
1125.902117234883
 20
9.34744535646169
 30
0.0
 11
1125.902116565482
 21
9.44755990286174
 31
0.0
  0
LINE
  5
98
330
1F
100
AcDbEntity
  8
0
  6
Continuous
 62
     7
100
AcDbLine
 10
1115.222826585883
 20
22.08561699426176
 30
0.0
 11
1114.892079048814
 21
24.43896849068233
 31
0.0
  0
LINE
  5
99
330
1F
100
AcDbEntity
  8
0
  6
Continuous
 62
     7
100
AcDbLine
 10
1128.102128600583
 20
7.6478704109617
 30
0.0
 11
1128.102119240583
 21
9.04787041096174
 31
0.0
  0
LINE
  5
9A
330
1F
100
AcDbEntity
  8
A_RUNDUNGEN
  6
Continuous
 62
     7
100
AcDbLine
 10
1128.602103039583
 20
9.24763319816171
 30
0.0
 11
1128.602100956882
 21
10.14763319816169
 31
0.0
  0
LINE
  5
9B
330
1F
100
AcDbEntity
  8
A_RUNDUNGEN
  6
Continuous
 62
     7
100
AcDbLine
 10
1128.602054675283
 20
30.14763319786172
 30
0.0
 11
1128.602053518187
 21
30.6476503018617
 31
0.0
  0
LINE
  5
9C
330
1F
100
AcDbEntity
  8
A_ACHSEN
  6
DOT_CENTER
 62
     2
100
AcDbLine
 10
1132.402060460483
 20
27.64760919966173
 30
0.0
 11
1132.402060460483
 21
23.39760919966173
 31
0.0
  0
LINE
  5
9D
330
1F
100
AcDbEntity
  8
A_ACHSEN
  6
DOT_CENTER
 62
     2
100
AcDbLine
 10
1132.402060460483
 20
27.64760919966173
 30
0.0
 11
1132.402060460483
 21
31.89760919966173
 31
0.0
  0
LINE
  5
9E
330
1F
100
AcDbEntity
  8
A_ACHSEN
  6
DOT_CENTER
 62
     2
100
AcDbLine
 10
1132.402095171683
 20
12.64765030186172
 30
0.0
 11
1132.402095171683
 21
8.0
 31
0.0
  0
LINE
  5
9F
330
1F
100
AcDbEntity
  8
A_ACHSEN
  6
DOT_CENTER
 62
     2
100
AcDbLine
 10
1132.402095171683
 20
12.64765030186172
 30
0.0
 11
1132.402095171683
 21
17.67265030186175
 31
0.0
  0
LINE
  5
A0
330
1F
100
AcDbEntity
  8
0
  6
Continuous
 62
     7
100
AcDbLine
 10
1127.037513079683
 20
27.83589377476173
 30
0.0
 11
1127.260729890994
 21
26.24765030186171
 31
0.0
  0
LINE
  5
A1
330
1F
100
AcDbEntity
  8
A_RUNDUNGEN
  6
Continuous
 62
     7
100
AcDbLine
 10
1141.901968810382
 20
31.5476639749617
 30
0.0
 11
1141.901966804682
 21
31.84766687446174
 31
0.0
  0
LINE
  5
A2
330
1F
100
AcDbEntity
  8
0
  6
Continuous
 62
     7
100
AcDbLine
 10
1144.401955438782
 20
33.64765439076172
 30
0.0
 11
1144.401966804583
 21
31.84765439076174
 31
0.0
  0
LINE
  5
A3
330
1F
100
AcDbEntity
  8
A_RUNDUNGEN
  6
Continuous
 62
     7
100
AcDbLine
 10
1144.401968809483
 20
31.54766976016177
 30
0.0
 11
1144.401955438782
 21
33.64765439076172
 31
0.0
  0
LINE
  5
A4
330
1F
100
AcDbEntity
  8
A_RUNDUNGEN
  6
Continuous
 62
     7
100
AcDbLine
 10
1145.902095171683
 20
7.64766297321094
 30
0.0
 11
1145.87161716218
 21
7.64766279883933
 31
0.0
  0
LINE
  5
A5
330
1F
100
AcDbEntity
  8
0
  6
Continuous
 62
     7
100
AcDbLine
 10
1111.40212860096
 20
7.64775875863008
 30
0.0
 11
1128.102128600583
 21
7.6478704109617
 31
0.0
  0
LINE
  5
A6
330
1F
100
AcDbEntity
  8
A_RUNDUNGEN
  6
Continuous
 62
     7
100
AcDbLine
 10
1145.902104196583
 20
8.74767323176175
 30
0.0
 11
1145.261746749005
 21
8.74767174992326
 31
0.0
  0
LINE
  5
A7
330
1F
100
AcDbEntity
  8
A_RUNDUNGEN
  6
Continuous
 62
     7
100
AcDbLine
 10
1131.551226025382
 20
8.74764002266173
 30
0.0
 11
1129.102104196583
 21
8.74763435516175
 31
0.0
  0
LINE
  5
A8
330
1F
100
AcDbEntity
  8
A_RUNDUNGEN
  6
Continuous
 62
     7
100
AcDbLine
 10
1128.102119240583
 20
9.04756113556172
 30
0.0
 11
1128.645974237883
 21
9.04755959756173
 31
0.0
  0
LINE
  5
A9
330
1F
100
AcDbEntity
  8
0
  6
Continuous
 62
     7
100
AcDbLine
 10
1128.102119240583
 20
9.04787041096174
 30
0.0
 11
1111.702119240883
 21
9.04776076426177
 31
0.0
  0
LINE
  5
AA
330
1F
100
AcDbEntity
  8
A_RUNDUNGEN
  6
Continuous
 62
     7
100
AcDbLine
 10
1128.602102371283
 20
9.34755774026169
 30
0.0
 11
1111.702117235183
 21
9.34744475086174
 31
0.0
  0
LINE
  5
AB
330
1F
100
AcDbEntity
  8
A_RUNDUNGEN
  6
Continuous
 62
     7
100
AcDbLine
 10
1116.202116566483
 20
9.44750178896172
 30
0.0
 11
1128.602102576783
 21
9.44757795436172
 31
0.0
  0
LINE
  5
AC
330
1F
100
AcDbEntity
  8
0
  6
Continuous
 62
     7
100
AcDbLine
 10
1111.902116566582
 20
9.44776210146173
 30
0.0
 11
1116.202116566483
 21
9.44779085026173
 31
0.0
  0
LINE
  5
AD
330
1F
100
AcDbEntity
  8
A_RUNDUNGEN
  6
Continuous
 62
     7
100
AcDbLine
 10
1128.602100956882
 20
10.14763319816169
 30
0.0
 11
1117.602100956882
 21
10.14760774326172
 31
0.0
  0
LINE
  5
AE
330
1F
100
AcDbEntity
  8
A_ACHSEN
  6
DOT_CENTER
 62
     2
100
AcDbLine
 10
1132.402095171683
 20
12.64765030186172
 30
0.0
 11
1127.377095171683
 21
12.64765030186172
 31
0.0
  0
LINE
  5
AF
330
1F
100
AcDbEntity
  8
A_ACHSEN
  6
DOT_CENTER
 62
     2
100
AcDbLine
 10
1132.402095171683
 20
12.64765030186172
 30
0.0
 11
1134.402095171683
 21
12.64765030186172
 31
0.0
  0
LINE
  5
B0
330
1F
100
AcDbEntity
  8
A_RUNDUNGEN
  6
Continuous
 62
     7
100
AcDbLine
 10
1116.671683877483
 20
11.71620333416175
 30
0.0
 11
1114.032509918283
 21
12.08710881746177
 31
0.0
  0
LINE
  5
B1
330
1F
100
AcDbEntity
  8
0
  6
Continuous
 62
     7
100
AcDbLine
 10
1115.510291358683
 20
13.06956129756171
 30
0.0
 11
1115.889481657262
 21
13.01627047129113
 31
0.0
  0
LINE
  5
B2
330
1F
100
AcDbEntity
  8
A_RUNDUNGEN
  6
Continuous
 62
     7
100
AcDbLine
 10
1116.202108543582
 20
10.64750178886172
 30
0.0
 11
1117.131945426983
 21
10.49752830716173
 31
0.0
  0
LINE
  5
B3
330
1F
100
AcDbEntity
  8
0
  6
Continuous
 62
     7
100
AcDbLine
 10
1113.102105200783
 20
11.14777012436176
 30
0.0
 11
1116.202108543582
 21
10.64779085026171
 31
0.0
  0
LINE
  5
B4
330
1F
100
AcDbEntity
  8
0
  6
DASHED
 62
     2
100
AcDbLine
 10
1126.750092858874
 20
17.59939156318566
 30
0.0
 11
1121.914789384939
 21
18.2789377391088
 31
0.0
  0
LINE
  5
B5
330
1F
100
AcDbEntity
  8
0
  6
Continuous
 62
     7
100
AcDbLine
 10
1126.750081065183
 20
22.69586626156175
 30
0.0
 11
1120.302187604208
 21
21.78965871685127
 31
0.0
  0
LINE
  5
B6
330
1F
100
AcDbEntity
  8
A_RUNDUNGEN
  6
Continuous
 62
     7
100
AcDbLine
 10
1117.278362430883
 20
30.02111276896173
 30
0.0
 11
1116.201980176783
 21
29.84750178826172
 31
0.0
  0
LINE
  5
B7
330
1F
100
AcDbEntity
  8
0
  6
Continuous
 62
     7
100
AcDbLine
 10
1116.201980176783
 20
29.84779084956173
 30
0.0
 11
1113.101983519783
 21
29.34777012376176
 31
0.0
  0
LINE
  5
B8
330
1F
100
AcDbEntity
  8
0
  6
Continuous
 62
     7
100
AcDbLine
 10
1115.510258600282
 20
27.22564450746174
 30
0.0
 11
1125.908069940482
 21
28.68698612896176
 31
0.0
  0
LINE
  5
B9
330
1F
100
AcDbEntity
  8
A_RUNDUNGEN
  6
Continuous
 62
     7
100
AcDbLine
 10
1114.032472612983
 20
28.20809014816169
 30
0.0
 11
1116.328062836268
 21
28.53071973139591
 31
0.0
  0
LINE
  5
BA
330
1F
100
AcDbEntity
  8
A_ACHSEN
  6
DOT_CENTER
 62
     2
100
AcDbLine
 10
1132.402060460483
 20
27.64760919966173
 30
0.0
 11
1128.152060460483
 21
27.64760919966173
 31
0.0
  0
LINE
  5
BB
330
1F
100
AcDbEntity
  8
A_ACHSEN
  6
DOT_CENTER
 62
     2
100
AcDbLine
 10
1132.402060460483
 20
27.64760919966173
 30
0.0
 11
1134.402095172105
 21
27.64760919966173
 31
0.0
  0
LINE
  5
BC
330
1F
100
AcDbEntity
  8
A_RUNDUNGEN
  6
Continuous
 62
     7
100
AcDbLine
 10
1117.602054675283
 20
30.1476077429617
 30
0.0
 11
1118.504086584306
 21
30.14760983033734
 31
0.0
  0
LINE
  5
BD
330
1F
100
AcDbEntity
  8
A_RUNDUNGEN
  6
Continuous
 62
     7
100
AcDbLine
 10
1129.102051435483
 20
31.54763435496173
 30
0.0
 11
1144.102095171683
 21
31.54766906622362
 31
0.0
  0
LINE
  5
BE
330
1F
100
AcDbEntity
  8
A_RUNDUNGEN
  6
Continuous
 62
     7
100
AcDbLine
 10
1111.701966805382
 20
31.84744475016172
 30
0.0
 11
1111.901966807483
 21
31.84744608726172
 31
0.0
  0
LINE
  5
BF
330
1F
100
AcDbEntity
  8
A_RUNDUNGEN
  6
Continuous
 62
     7
100
AcDbLine
 10
1144.401966804583
 20
31.84765439076174
 30
0.0
 11
1116.201966805283
 21
31.84750178816174
 31
0.0
  0
LINE
  5
C0
330
1F
100
AcDbEntity
  8
0
  6
Continuous
 62
     7
100
AcDbLine
 10
1111.901966805383
 20
31.84776210076169
 30
0.0
 11
1116.201966805283
 21
31.84779084956174
 31
0.0
  0
LINE
  5
C1
330
1F
100
AcDbEntity
  8
0
  6
Continuous
 62
     7
100
AcDbLine
 10
1111.701966136782
 20
31.94776076356172
 30
0.0
 11
1138.478731942583
 21
31.94793978686172
 31
0.0
  0
LINE
  5
C2
330
1F
100
AcDbEntity
  8
A_RUNDUNGEN
  6
Continuous
 62
     7
100
AcDbLine
 10
1140.401955440975
 20
33.64763962636177
 30
0.0
 11
1144.401955438782
 21
33.64765439076172
 31
0.0
  0
LINE
  5
C3
330
1F
100
AcDbEntity
  8
0
  6
Continuous
 62
     7
100
AcDbLine
 10
1111.401955439555
 20
33.64775875773504
 30
0.0
 11
1140.401955438882
 21
33.6479526451617
 31
0.0
  0
LINE
  5
C4
330
1F
100
AcDbEntity
  8
1
  6
Continuous
 62
     7
100
AcDbLine
 10
1145.902095171683
 20
31.14765030186172
 30
0.0
 11
1147.634145979252
 21
28.14765030186172
 31
0.0
  0
LINE
  5
C5
330
1F
100
AcDbEntity
  8
1
  6
Continuous
 62
     7
100
AcDbLine
 10
1147.634145979252
 20
28.14765030186172
 30
0.0
 11
1157.170044364114
 21
28.14765030186172
 31
0.0
  0
LINE
  5
C6
330
1F
100
AcDbEntity
  8
1
  6
Continuous
 62
     7
100
AcDbLine
 10
1157.170044364114
 20
28.14765030186172
 30
0.0
 11
1158.902095171683
 21
31.14765030186172
 31
0.0
  0
LINE
  5
C7
330
1F
100
AcDbEntity
  8
1
  6
Continuous
 62
     7
100
AcDbLine
 10
1158.902095171683
 20
31.14765030186172
 30
0.0
 11
1158.902095171683
 21
34.14765030186172
 31
0.0
  0
LINE
  5
C8
330
1F
100
AcDbEntity
  8
1
  6
Continuous
 62
     7
100
AcDbLine
 10
1146.902095171683
 20
33.14765030186172
 30
0.0
 11
1157.902095171683
 21
33.14765030186172
 31
0.0
  0
LINE
  5
C9
330
1F
100
AcDbEntity
  8
1
  6
Continuous
 62
     7
100
AcDbLine
 10
1157.902095171683
 20
33.14765030186172
 30
0.0
 11
1157.902095171683
 21
31.41559949429283
 31
0.0
  0
LINE
  5
CA
330
1F
100
AcDbEntity
  8
1
  6
Continuous
 62
     7
100
AcDbLine
 10
1157.902095171683
 20
31.41559949429283
 30
0.0
 11
1156.592694094924
 21
29.14765030186172
 31
0.0
  0
LINE
  5
CB
330
1F
100
AcDbEntity
  8
1
  6
Continuous
 62
     7
100
AcDbLine
 10
1156.592694094924
 20
29.14765030186172
 30
0.0
 11
1148.211496248441
 21
29.14765030186172
 31
0.0
  0
LINE
  5
CC
330
1F
100
AcDbEntity
  8
1
  6
Continuous
 62
     7
100
AcDbLine
 10
1148.211496248441
 20
29.14765030186172
 30
0.0
 11
1146.902095171683
 21
31.41559949429283
 31
0.0
  0
LINE
  5
CD
330
1F
100
AcDbEntity
  8
1
  6
Continuous
 62
     7
100
AcDbLine
 10
1146.902095171683
 20
31.41559949429283
 30
0.0
 11
1146.902095171683
 21
33.14765030186172
 31
0.0
  0
LINE
  5
CE
330
1F
100
AcDbEntity
  8
1
  6
PHANTOM
 62
     2
100
AcDbLine
 10
1095.902095171683
 20
4.14765030186172
 30
0.0
 11
1095.902095171683
 21
0.58936323294671
 31
0.0
  0
LINE
  5
CF
330
1F
100
AcDbEntity
  8
1
  6
PHANTOM
 62
     2
100
AcDbLine
 10
1095.902095171682
 20
60.14765030186169
 30
0.0
 11
1095.902095171682
 21
62.63005001241072
 31
0.0
  0
LINE
  5
D0
330
1F
100
AcDbEntity
  8
1
  6
Continuous
 62
     7
100
AcDbLine
 10
1158.902095171683
 20
34.14765030186172
 30
0.0
 11
1158.902095171683
 21
60.14765030186169
 31
0.0
  0
LINE
  5
D1
330
1F
100
AcDbEntity
  8
1
  6
Continuous
 62
     7
100
AcDbLine
 10
1145.902095171683
 20
34.14765030186172
 30
0.0
 11
1158.902095171683
 21
34.14765030186172
 31
0.0
  0
LINE
  5
D2
330
1F
100
AcDbEntity
  8
1
  6
Continuous
 62
     7
100
AcDbLine
 10
1145.902095171683
 20
34.14765030186172
 30
0.0
 11
1145.902095171683
 21
33.64765439076172
 31
0.0
  0
LINE
  5
D3
330
1F
100
AcDbEntity
  8
1
  6
DOT_CENTER
 62
     2
100
AcDbLine
 10
1095.902095171683
 20
4.14765030186172
 30
0.0
 11
1095.902095171682
 21
60.14765030186169
 31
0.0
  0
LINE
  5
D4
330
1F
100
AcDbEntity
  8
1
  6
Continuous
 62
     7
100
AcDbLine
 10
1145.902095171683
 20
34.14765030186172
 30
0.0
 11
1145.902095171683
 21
33.64765439076172
 31
0.0
  0
LINE
  5
D5
330
1F
100
AcDbEntity
  8
1
  6
Continuous
 62
     7
100
AcDbLine
 10
1138.902095171683
 20
7.64765030186172
 30
0.0
 11
1138.902095171683
 21
7.64760862155449
 31
0.0
  0
LINE
  5
D6
330
1F
100
AcDbEntity
  8
1
  6
Continuous
 62
     7
100
AcDbLine
 10
1145.902095171683
 20
31.5476732315629
 30
0.0
 11
1145.902095171683
 21
18.69034783277049
 31
0.0
  0
LINE
  5
D7
330
1F
100
AcDbEntity
  8
1
  6
DOT_CENTER
 62
     2
100
AcDbLine
 10
1114.346228909466
 20
16.28788427231368
 30
0.0
 11
1127.613080967702
 21
14.42202340802843
 31
0.0
  0
LINE
  5
D8
330
1F
100
AcDbEntity
  8
0
  6
DASHED
 62
     2
100
AcDbLine
 10
1127.252719270233
 20
13.99040951722156
 30
0.0
 11
1127.513393636988
 21
15.84523515764515
 31
0.0
  0
LINE
  5
D9
330
1F
100
AcDbEntity
  8
0
  6
Continuous
 62
     7
100
AcDbLine
 10
1125.556837298527
 20
11.65763505286398
 30
0.0
 11
1125.90810946195
 21
11.60826779873126
 31
0.0
  0
LINE
  5
DA
330
1F
100
AcDbEntity
  8
0
  6
DASHED
 62
     2
100
AcDbLine
 10
1120.371416779881
 20
12.38638614442396
 30
0.0
 11
1121.072714118845
 21
12.28782688593373
 31
0.0
  0
LINE
  5
DB
330
1F
100
AcDbEntity
  8
0
  6
Continuous
 62
     7
100
AcDbLine
 10
1121.215497104959
 20
18.37721520964904
 30
0.0
 11
1116.352274755483
 21
19.06068506176169
 31
0.0
  0
LINE
  5
DC
330
1F
100
AcDbEntity
  8
1
  6
Continuous
 62
     7
100
AcDbLine
 10
1138.902095171683
 20
4.14765030186172
 30
0.0
 11
1139.458024425472
 21
4.14765030186172
 31
0.0
  0
LINE
  5
DD
330
1F
100
AcDbEntity
  8
1
  6
DASHED
 62
     2
100
AcDbLine
 10
1139.458024425472
 20
4.14765030186172
 30
0.0
 11
1145.902095171683
 21
4.14765030186172
 31
0.0
  0
LINE
  5
DE
330
1F
100
AcDbEntity
  8
A_RUNDUNGEN
  6
Continuous
 62
     7
100
AcDbLine
 10
1139.402007637114
 20
7.64762578473467
 30
0.0
 11
1138.902095171683
 21
7.64760862155449
 31
0.0
  0
LINE
  5
DF
330
1F
100
AcDbEntity
  8
A_RUNDUNGEN
  6
Continuous
 62
     7
100
AcDbLine
 10
1138.948158431688
 20
8.7476571397735
 30
0.0
 11
1131.551226025382
 21
8.74764394946172
 31
0.0
  0
LINE
  5
E0
330
1F
100
AcDbEntity
  8
A_RUNDUNGEN
  6
DASHED
 62
     2
100
AcDbLine
 10
1144.402121245783
 20
8.74766976066169
 30
0.0
 11
1144.402128600283
 21
7.6476543915617
 31
0.0
  0
LINE
  5
E1
330
1F
100
AcDbEntity
  8
1
  6
DASHED
 62
     2
100
AcDbLine
 10
1144.102095171683
 20
10.83930808386475
 30
0.0
 11
1144.102095171683
 21
7.6476543915617
 31
0.0
  0
LINE
  5
E2
330
1F
100
AcDbEntity
  8
A_RUNDUNGEN
  6
DASHED
 62
     2
100
AcDbLine
 10
1145.261746749005
 20
8.74767174992326
 30
0.0
 11
1138.948158431688
 21
8.7476571397735
 31
0.0
  0
LINE
  5
E3
330
1F
100
AcDbEntity
  8
1
  6
DASHED
 62
     2
100
AcDbLine
 10
1145.902095171683
 20
7.59269032839207
 30
0.0
 11
1145.902095171683
 21
4.14765030186172
 31
0.0
  0
LINE
  5
E4
330
1F
100
AcDbEntity
  8
A_RUNDUNGEN
  6
DASHED
 62
     2
100
AcDbLine
 10
1145.87161716218
 20
7.64766279883933
 30
0.0
 11
1139.402007637114
 21
7.64762578473467
 31
0.0
  0
LINE
  5
E5
330
1F
100
AcDbEntity
  8
A_RUNDUNGEN
  6
Continuous
 62
     7
100
AcDbLine
 10
1096.109365746814
 20
-18.52497996403641
 30
0.0
 11
1114.06592747946
 21
-24.01472054443283
 31
0.0
  0
LINE
  5
E6
330
1F
100
AcDbEntity
  8
1
  6
DOT_CENTER
 62
     2
100
AcDbLine
 10
1123.247475471986
 20
-23.65852324803118
 30
0.0
 11
1094.739847354331
 21
-14.9430750871316
 31
0.0
  0
LINE
  5
E7
330
1F
100
AcDbEntity
  8
1
  6
Continuous
 62
     7
100
AcDbLine
 10
1119.362677572814
 20
-41.00877858833646
 30
0.0
 11
1062.498788683925
 21
-41.0087785883359
 31
0.0
  0
LINE
  5
E8
330
1F
100
AcDbEntity
  8
1
  6
Continuous
 62
     7
100
AcDbLine
 10
1119.362677572814
 20
-41.00877858833646
 30
0.0
 11
1119.362677572814
 21
-37.40911772535987
 31
0.0
  0
LINE
  5
E9
330
1F
100
AcDbEntity
  8
1
  6
Continuous
 62
     7
100
AcDbLine
 10
1132.362677572815
 20
-8.90877409118609
 30
0.0
 11
1132.362677572815
 21
-1.00877858833628
 31
0.0
  0
LINE
  5
EA
330
1F
100
AcDbEntity
  8
1
  6
Continuous
 62
     7
100
AcDbLine
 10
1132.362677572815
 20
-1.00877858833628
 30
0.0
 11
1062.498788683926
 21
-1.00877858833629
 31
0.0
  0
LINE
  5
EB
330
1F
100
AcDbEntity
  8
1
  6
PHANTOM
 62
     2
100
AcDbLine
 10
1062.498788683925
 20
-41.0087785883359
 30
0.0
 11
1062.498788683925
 21
-44.79761067598889
 31
0.0
  0
LINE
  5
EC
330
1F
100
AcDbEntity
  8
1
  6
PHANTOM
 62
     2
100
AcDbLine
 10
1062.498788683926
 20
-1.00877858833629
 30
0.0
 11
1062.498788683926
 21
1.85820233063184
 31
0.0
  0
LINE
  5
ED
330
1F
100
AcDbEntity
  8
1
  6
PHANTOM
 62
     2
100
AcDbLine
 10
1062.498788683925
 20
-41.0087785883359
 30
0.0
 11
1062.498788683926
 21
-1.00877858833629
 31
0.0
  0
LINE
  5
EE
330
1F
100
AcDbEntity
  8
0
  6
Continuous
 62
     7
100
AcDbLine
 10
1094.862652167514
 20
-10.70928152653639
 30
0.0
 11
1092.862659887614
 21
-11.86399543643636
 31
0.0
  0
LINE
  5
EF
330
1F
100
AcDbEntity
  8
0
  6
Continuous
 62
     7
100
AcDbLine
 10
1087.362823991914
 20
-36.40907495023613
 30
0.0
 11
1087.362646819015
 21
-9.90907495103622
 31
0.0
  0
LINE
  5
F0
330
1F
100
AcDbEntity
  8
0
  6
Continuous
 62
     7
100
AcDbLine
 10
1089.362820649014
 20
-35.90906157863633
 30
0.0
 11
1089.362651499014
 21
-10.6090615795363
 31
0.0
  0
LINE
  5
F1
330
1F
100
AcDbEntity
  8
A_RUNDUNGEN
  6
Continuous
 62
     7
100
AcDbLine
 10
1096.629503857114
 20
-13.40326576413637
 30
0.0
 11
1095.445424347215
 21
-17.27630794233635
 31
0.0
  0
LINE
  5
F2
330
1F
100
AcDbEntity
  8
0
  6
Continuous
 62
     7
100
AcDbLine
 10
1092.862659887614
 20
-11.86399543643636
 30
0.0
 11
1092.862819311814
 21
-35.70929489733641
 31
0.0
  0
LINE
  5
F3
330
1F
100
AcDbEntity
  8
A_RUNDUNGEN
  6
Continuous
 62
     7
100
AcDbLine
 10
1095.862733926414
 20
-22.93806738533629
 30
0.0
 11
1095.862792568614
 21
-31.70927484013616
 31
0.0
  0
LINE
  5
F4
330
1F
100
AcDbEntity
  8
0
  6
Continuous
 62
     7
100
AcDbLine
 10
1097.362820648814
 20
-35.90900809253631
 30
0.0
 11
1097.362830679498
 21
-37.40930479023626
 31
0.0
  0
LINE
  5
F5
330
1F
100
AcDbEntity
  8
0
  6
Continuous
 62
     7
100
AcDbLine
 10
1098.862819311614
 20
-35.70925478263623
 30
0.0
 11
1098.862830677781
 21
-37.40929476158246
 31
0.0
  0
LINE
  5
F6
330
1F
100
AcDbEntity
  8
A_RUNDUNGEN
  6
Continuous
 62
     7
100
AcDbLine
 10
1120.095005342314
 20
-28.67687978203639
 30
0.0
 11
1122.207756718244
 21
-26.56410015523575
 31
0.0
  0
LINE
  5
F7
330
1F
100
AcDbEntity
  8
A_RUNDUNGEN
  6
Continuous
 62
     7
100
AcDbLine
 10
1100.398335118514
 20
-33.00213773533661
 30
0.0
 11
1101.512556130214
 21
-34.1163438483362
 31
0.0
  0
LINE
  5
F8
330
1F
100
AcDbEntity
  8
0
  6
Continuous
 62
     7
100
AcDbLine
 10
1115.362652166914
 20
-10.70914446823669
 30
0.0
 11
1115.362640132614
 21
-8.90888774953634
 31
0.0
  0
LINE
  5
F9
330
1F
100
AcDbEntity
  8
A_RUNDUNGEN
  6
Continuous
 62
     7
100
AcDbLine
 10
1116.362803934014
 20
-33.40913778173651
 30
0.0
 11
1116.362771740714
 21
-28.59394793383618
 31
0.0
  0
LINE
  5
FA
330
1F
100
AcDbEntity
  8
0
  6
Continuous
 62
     7
100
AcDbLine
 10
1118.862640801115
 20
-9.0091210681365
 30
0.0
 11
1118.862652166914
 21
-10.70912106803621
 31
0.0
  0
LINE
  5
FB
330
1F
100
AcDbEntity
  8
A_RUNDUNGEN
  6
Continuous
 62
     7
100
AcDbLine
 10
1119.362830677014
 20
-37.4091177243365
 30
0.0
 11
1119.362784114214
 21
-30.44465163053631
 31
0.0
  0
LINE
  5
FC
330
1F
100
AcDbEntity
  8
A_RUNDUNGEN
  6
DASHED
 62
     2
100
AcDbLine
 10
1121.265705535315
 20
-25.17017134143643
 30
0.0
 11
1122.449785045214
 21
-21.29712916323649
 31
0.0
  0
LINE
  5
FD
330
1F
100
AcDbEntity
  8
DEFAULT_1
  6
DOT_CENTER
 62
     2
100
AcDbLine
 10
1123.862677572814
 20
-14.50877858833641
 30
0.0
 11
1123.862677572814
 21
-20.04877858823634
 31
0.0
  0
LINE
  5
FE
330
1F
100
AcDbEntity
  8
A_ACHSEN
  6
DOT_CENTER
 62
     2
100
AcDbLine
 10
1123.862677572814
 20
-14.50908202413671
 30
0.0
 11
1123.862677572814
 21
-9.50898202413649
 31
0.0
  0
LINE
  5
FF
330
1F
100
AcDbEntity
  8
0
  6
DASHED
 62
     2
100
AcDbLine
 10
1124.362743761914
 20
-24.40908429593617
 30
0.0
 11
1124.362718963708
 21
-20.69998611196037
 31
0.0
  0
LINE
  5
100
330
1F
100
AcDbEntity
  8
0
  6
DASHED
 62
     2
100
AcDbLine
 10
1128.362687601315
 20
-16.0090575531364
 30
0.0
 11
1128.362682160141
 21
-15.19521366611064
 31
0.0
  0
LINE
  5
101
330
1F
100
AcDbEntity
  8
0
  6
Continuous
 62
     7
100
AcDbLine
 10
1131.362683589815
 20
-15.50882120513662
 30
0.0
 11
1131.362640131599
 21
-8.90878077723646
 31
0.0
  0
LINE
  5
102
330
1F
100
AcDbEntity
  8
A_RUNDUNGEN
  6
Continuous
 62
     7
100
AcDbLine
 10
1097.362830679498
 20
-37.40930479023626
 30
0.0
 11
1098.862830677781
 21
-37.40929476158246
 31
0.0
  0
LINE
  5
103
330
1F
100
AcDbEntity
  8
0
  6
Continuous
 62
     7
100
AcDbLine
 10
1098.862830677515
 20
-37.40925478263656
 30
0.0
 11
1119.362677572814
 21
-37.40911772535987
 31
0.0
  0
LINE
  5
104
330
1F
100
AcDbEntity
  8
0
  6
Continuous
 62
     7
100
AcDbLine
 10
1086.862830676025
 20
-37.40907829310275
 30
0.0
 11
1097.362830677514
 21
-37.40900809243619
 31
0.0
  0
LINE
  5
105
330
1F
100
AcDbEntity
  8
0
  6
Continuous
 62
     7
100
AcDbLine
 10
1089.362820649014
 20
-35.90906157863633
 30
0.0
 11
1097.362820648814
 21
-35.90900809253631
 31
0.0
  0
LINE
  5
106
330
1F
100
AcDbEntity
  8
0
  6
Continuous
 62
     7
100
AcDbLine
 10
1092.862819311814
 20
-35.70929489733641
 30
0.0
 11
1098.862819311614
 21
-35.70925478263623
 31
0.0
  0
LINE
  5
107
330
1F
100
AcDbEntity
  8
A_RUNDUNGEN
  6
Continuous
 62
     7
100
AcDbLine
 10
1102.219664869614
 20
-34.40923233953615
 30
0.0
 11
1115.362810619815
 21
-34.40914446753624
 31
0.0
  0
LINE
  5
108
330
1F
100
AcDbEntity
  8
A_RUNDUNGEN
  6
Continuous
 62
     7
100
AcDbLine
 10
1096.862799254414
 20
-32.70926815433613
 30
0.0
 11
1099.691226379115
 21
-32.7092492441363
 31
0.0
  0
LINE
  5
109
330
1F
100
AcDbEntity
  8
0
  6
Continuous
 62
     7
100
AcDbLine
 10
1132.362640132314
 20
-8.90877409143661
 30
0.0
 11
1132.362683589814
 21
-15.50877409123661
 31
0.0
  0
LINE
  5
10A
330
1F
100
AcDbEntity
  8
A_RUNDUNGEN
  6
Continuous
 62
     7
100
AcDbLine
 10
1115.655137051814
 20
-27.63764790893613
 30
0.0
 11
1097.155099237415
 21
-21.98175398893644
 31
0.0
  0
LINE
  5
10B
330
1F
100
AcDbEntity
  8
0
  6
Continuous
 62
     7
100
AcDbLine
 10
1132.112683589814
 20
-15.50877576263668
 30
0.0
 11
1131.362664876114
 21
-12.60974267143643
 31
0.0
  0
LINE
  5
10C
330
1F
100
AcDbEntity
  8
0
  6
DASHED
 62
     2
100
AcDbLine
 10
1124.362707658714
 20
-19.0090842960364
 30
0.0
 11
1125.362707658715
 21
-19.00907761033651
 31
0.0
  0
LINE
  5
10D
330
1F
100
AcDbEntity
  8
A_RUNDUNGEN
  6
Continuous
 62
     7
100
AcDbLine
 10
1121.785843645693
 20
-20.04845714157012
 30
0.0
 11
1121.621413282029
 21
-19.99818693653309
 31
0.0
  0
LINE
  5
10E
330
1F
100
AcDbEntity
  8
0
  6
Continuous
 62
     7
100
AcDbLine
 10
1132.362683589814
 20
-15.50877409123661
 30
0.0
 11
1128.49666409384
 21
-15.50908669834609
 31
0.0
  0
LINE
  5
10F
330
1F
100
AcDbEntity
  8
DEFAULT_1
  6
DOT_CENTER
 62
     2
100
AcDbLine
 10
1123.862677572815
 20
-14.50911683723649
 30
0.0
 11
1118.322677572814
 21
-14.5091168372365
 31
0.0
  0
LINE
  5
110
330
1F
100
AcDbEntity
  8
A_ACHSEN
  6
DOT_CENTER
 62
     2
100
AcDbLine
 10
1123.862677572814
 20
-14.50908202413671
 30
0.0
 11
1128.862777572814
 21
-14.50908202413648
 31
0.0
  0
LINE
  5
111
330
1F
100
AcDbEntity
  8
0
  6
Continuous
 62
     7
100
AcDbLine
 10
1118.862652166914
 20
-10.70912106803621
 30
0.0
 11
1094.862652167514
 21
-10.70928152653639
 31
0.0
  0
LINE
  5
112
330
1F
100
AcDbEntity
  8
0
  6
Continuous
 62
     7
100
AcDbLine
 10
1089.362651499014
 20
-10.6090615795363
 30
0.0
 11
1115.362651498415
 21
-10.6088877494365
 31
0.0
  0
LINE
  5
113
330
1F
100
AcDbEntity
  8
0
  6
Continuous
 62
     7
100
AcDbLine
 10
1128.362640800915
 20
-9.00905755333656
 30
0.0
 11
1118.862640801115
 21
-9.0091210681365
 31
0.0
  0
LINE
  5
114
330
1F
100
AcDbEntity
  8
0
  6
Continuous
 62
     7
100
AcDbLine
 10
1132.362677572815
 20
-8.90877409118609
 30
0.0
 11
1131.362640131599
 21
-8.90878077723646
 31
0.0
  0
LINE
  5
115
330
1F
100
AcDbEntity
  8
0
  6
Continuous
 62
     7
100
AcDbLine
 10
1086.862640131655
 20
-8.90907829399156
 30
0.0
 11
1115.362640132614
 21
-8.90888774953634
 31
0.0
  0
LINE
  5
116
330
1F
100
AcDbEntity
  8
0
  6
Continuous
 62
     7
100
AcDbLine
 10
1115.362644274815
 20
-9.52873641923645
 30
0.0
 11
1118.862644276315
 21
-9.52890355793627
 31
0.0
  0
LINE
  5
117
330
1F
100
AcDbEntity
  8
0
  6
Continuous
 62
     7
100
AcDbLine
 10
1128.362644279514
 20
-9.52935722003655
 30
0.0
 11
1131.362644280315
 21
-9.52950048173654
 31
0.0
  0
LINE
  5
118
330
1F
100
AcDbEntity
  8
0
  6
Continuous
 62
     7
100
AcDbLine
 10
1119.362677572814
 20
-37.40911772535987
 30
0.0
 11
1119.362830677014
 21
-37.4091177243365
 31
0.0
  0
LINE
  5
119
330
1F
100
AcDbEntity
  8
1
  6
Continuous
 62
     7
100
AcDbLine
 10
1086.862830676025
 20
-37.40907829310275
 30
0.0
 11
1086.862640131655
 21
-8.90907829399156
 31
0.0
  0
LINE
  5
11A
330
1F
100
AcDbEntity
  8
1
  6
Continuous
 62
     7
100
AcDbLine
 10
1115.362640132614
 20
-8.90888774953634
 30
0.0
 11
1131.362640132315
 21
-8.90888774953654
 31
0.0
  0
LINE
  5
11B
330
1F
100
AcDbEntity
  8
0
  6
Continuous
 62
     7
100
AcDbLine
 10
1131.362640132315
 20
-8.90888774953654
 30
0.0
 11
1131.362640132314
 21
-8.90878077723676
 31
0.0
  0
LINE
  5
11C
330
1F
100
AcDbEntity
  8
A_RUNDUNGEN
  6
Continuous
 62
     7
100
AcDbLine
 10
1115.83729680278
 20
-18.22984734954803
 30
0.0
 11
1097.878175878814
 21
-12.73932436453638
 31
0.0
  0
LINE
  5
11D
330
1F
100
AcDbEntity
  8
A_RUNDUNGEN
  6
DASHED
 62
     2
100
AcDbLine
 10
1121.621413282029
 20
-19.99818693653309
 30
0.0
 11
1115.83729680278
 21
-18.22984734954803
 31
0.0
  0
LINE
  5
11E
330
1F
100
AcDbEntity
  8
A_RUNDUNGEN
  6
DASHED
 62
     2
100
AcDbLine
 10
1114.06592747946
 20
-24.01472054443283
 30
0.0
 11
1120.01703351363
 21
-25.83411274102615
 31
0.0
  0
LINE
  5
11F
330
1F
100
AcDbEntity
  8
A_RUNDUNGEN
  6
DASHED
 62
     2
100
AcDbLine
 10
1122.207756718244
 20
-26.56410015523575
 30
0.0
 11
1124.362743761914
 21
-24.40908429593617
 31
0.0
  0
LINE
  5
120
330
1F
100
AcDbEntity
  8
0
  6
Continuous
 62
     7
100
AcDbLine
 10
1124.362718963708
 20
-20.69998611196037
 30
0.0
 11
1124.36271570678
 21
-20.21284340111019
 31
0.0
  0
LINE
  5
121
330
1F
100
AcDbEntity
  8
0
  6
DASHED
 62
     2
100
AcDbLine
 10
1124.36271570678
 20
-20.21284340111019
 30
0.0
 11
1124.362707658714
 21
-19.0090842960364
 31
0.0
  0
LINE
  5
122
330
1F
100
AcDbEntity
  8
0
  6
DASHED
 62
     2
100
AcDbLine
 10
1128.49666409384
 20
-15.50908669834609
 30
0.0
 11
1128.362683590114
 21
-15.50909753203641
 31
0.0
  0
LINE
  5
123
330
1F
100
AcDbEntity
  8
0
  6
Continuous
 62
     7
100
AcDbLine
 10
1128.362682160141
 20
-15.19521366611064
 30
0.0
 11
1128.362640800915
 21
-9.00905755333656
 31
0.0
  0
LINE
  5
124
330
1F
100
AcDbEntity
  8
0
  6
Continuous
 62
     7
100
AcDbLine
 10
1132.561819457192
 20
17.04164644415998
 30
0.0
 11
1132.534095093362
 21
17.04212795456815
 31
0.0
  0
LINE
  5
125
330
1F
100
AcDbEntity
  8
A_RUNDUNGEN
  6
Continuous
 62
     7
100
AcDbLine
 10
1132.561819457192
 20
17.04164644415998
 30
0.0
 11
1133.262429763601
 21
17.02947840408882
 31
0.0
  0
LINE
  5
126
330
1F
100
AcDbEntity
  8
0
  6
Continuous
 62
     7
100
AcDbLine
 10
1149.074277721201
 20
1.87109911235526
 30
0.0
 11
1142.421838585135
 21
13.8699474547741
 31
0.0
  0
LINE
  5
127
330
1F
100
AcDbEntity
  8
A_RUNDUNGEN
  6
Continuous
 62
     7
100
AcDbLine
 10
1132.744008590008
 20
9.05249926089909
 30
0.0
 11
1137.526655054066
 21
9.38735388877906
 31
0.0
  0
LINE
  5
128
330
1F
100
AcDbEntity
  8
A_RUNDUNGEN
  6
Continuous
 62
     7
100
AcDbLine
 10
1134.276243943241
 20
16.01171990219931
 30
0.0
 11
1137.172047454201
 21
10.78862707146182
 31
0.0
  0
LINE
  5
129
330
1F
100
AcDbEntity
  8
A_ACHSEN
  6
DOT_CENTER
 62
     2
100
AcDbLine
 10
1117.80606533507
 20
-21.99633782030351
 30
0.0
 11
1118.599532817384
 21
-16.98375022959646
 31
0.0
  0
LINE
  5
12A
330
1F
100
AcDbEntity
  8
A_ACHSEN
  6
DOT_CENTER
 62
     2
100
AcDbLine
 10
1117.80606533507
 20
-21.99633782030351
 30
0.0
 11
1117.012597852757
 21
-27.00892541101033
 31
0.0
  0
LINE
  5
12B
330
1F
100
AcDbEntity
  8
0
  6
DASHED
 62
     2
100
AcDbLine
 10
1143.370251865659
 20
-3.76909537858258
 30
0.0
 11
1144.950575046966
 21
-4.01925261438566
 31
0.0
  0
LINE
  5
12C
330
1F
100
AcDbEntity
  8
0
  6
Continuous
 62
     7
100
AcDbLine
 10
1138.89678483502
 20
2.91758325606496
 30
0.0
 11
1136.698400243297
 21
-0.74186644254688
 31
0.0
  0
LINE
  5
12D
330
1F
100
AcDbEntity
  8
0
  6
Continuous
 62
     7
100
AcDbLine
 10
1135.91546177133
 20
-2.89355643423375
 30
0.0
 11
1134.004159804055
 21
-14.96786160339799
 31
0.0
  0
LINE
  5
12E
330
1F
100
AcDbEntity
  8
0
  6
DASHED
 62
     2
100
AcDbLine
 10
1139.661458026872
 20
7.53192502547708
 30
0.0
 11
1139.715910572082
 21
6.75419268712302
 31
0.0
  0
LINE
  5
12F
330
1F
100
AcDbEntity
  8
0
  6
DASHED
 62
     2
100
AcDbLine
 10
1139.518668620501
 20
-15.30882269362854
 30
0.0
 11
1141.082151344272
 21
-5.43180281046197
 31
0.0
  0
LINE
  5
130
330
1F
100
AcDbEntity
  8
0
  6
DASHED
 62
     2
100
AcDbLine
 10
1137.881237380425
 20
-20.6662910584503
 30
0.0
 11
1139.518668620501
 21
-15.30882269362854
 31
0.0
  0
LINE
  5
131
330
1F
100
AcDbEntity
  8
0
  6
Continuous
 62
     7
100
AcDbLine
 10
1124.299416323596
 20
-20.6955651113249
 30
0.0
 11
1122.915837488619
 21
-20.59893718399948
 31
0.0
  0
LINE
  5
132
330
1F
100
AcDbEntity
  8
A_RUNDUNGEN
  6
Continuous
 62
     7
100
AcDbLine
 10
1124.299416323596
 20
-20.6955651113249
 30
0.0
 11
1125.142812998815
 21
-20.75446719235206
 31
0.0
  0
LINE
  5
133
330
1F
100
AcDbEntity
  8
A_ACHSEN
  6
DOT_CENTER
 62
     2
100
AcDbLine
 10
1117.80606533507
 20
-21.99633782030351
 30
0.0
 11
1112.793477744364
 21
-21.2028703379898
 31
0.0
  0
LINE
  5
134
330
1F
100
AcDbEntity
  8
A_ACHSEN
  6
DOT_CENTER
 62
     2
100
AcDbLine
 10
1117.80606533507
 20
-21.99633782030351
 30
0.0
 11
1122.818652925777
 21
-22.78980530261698
 31
0.0
  0
LINE
  5
135
330
1F
100
AcDbEntity
  8
A_RUNDUNGEN
  6
Continuous
 62
     7
100
AcDbLine
 10
1124.299416323596
 20
-20.6955651113249
 30
0.0
 11
1131.868404136185
 21
-25.79995088180768
 31
0.0
  0
LINE
  5
136
330
1F
100
AcDbEntity
  8
A_ACHSEN
  6
Continuous
 62
     7
100
AcDbLine
 10
1117.509970301724
 20
-26.23601088921522
 30
0.0
 11
1128.647240205039
 21
-27.0138280107433
 31
0.0
  0
LINE
  5
137
330
1F
100
AcDbEntity
  8
A_RUNDUNGEN
  6
DASHED
 62
     2
100
AcDbLine
 10
1125.142812998815
 20
-20.75446719235206
 30
0.0
 11
1126.602559948662
 21
-20.85641463374627
 31
0.0
  0
LINE
  5
138
330
1F
100
AcDbEntity
  8
0
  6
Continuous
 62
     7
100
AcDbLine
 10
1139.715910572082
 20
6.75419268712302
 30
0.0
 11
1139.738859131446
 21
6.42642404623837
 31
0.0
  0
LINE
  5
139
330
1F
100
AcDbEntity
  8
A_RUNDUNGEN
  6
DASHED
 62
     2
100
AcDbLine
 10
1133.262429763601
 20
17.02947840408882
 30
0.0
 11
1137.278565127203
 21
16.95972708072335
 31
0.0
  0
LINE
  5
13A
330
1F
100
AcDbEntity
  8
A_ACHSEN
  6
Continuous
 62
     7
100
AcDbLine
 10
1129.286047886959
 20
22.90193840630949
 30
0.0
 11
1121.431868341273
 21
18.50741184886018
 31
0.0
  0
LINE
  5
13B
330
1F
100
AcDbEntity
  8
A_RUNDUNGEN
  6
DASHED
 62
     2
100
AcDbLine
 10
1139.014350287253
 20
17.80290590901873
 30
0.0
 11
1132.250198170524
 21
17.30289666439317
 31
0.0
  0
LINE
  5
13C
330
1F
100
AcDbEntity
  8
A_ACHSEN
  6
DOT_CENTER
 62
     2
100
AcDbLine
 10
1123.384991255695
 20
15.01666538411077
 30
0.0
 11
1120.766844138471
 21
13.55177437022136
 31
0.0
  0
LINE
  5
13D
330
1F
100
AcDbEntity
  8
A_ACHSEN
  6
DOT_CENTER
 62
     2
100
AcDbLine
 10
1123.384991255695
 20
15.01666538411077
 30
0.0
 11
1126.003138372918
 21
16.48155639800006
 31
0.0
  0
LINE
  5
13E
330
1F
100
AcDbEntity
  8
A_ACHSEN
  6
DOT_CENTER
 62
     2
100
AcDbLine
 10
1123.384991255695
 20
15.01666538411077
 30
0.0
 11
1121.920100241806
 21
17.63481250133441
 31
0.0
  0
LINE
  5
13F
330
1F
100
AcDbEntity
  8
A_ACHSEN
  6
DOT_CENTER
 62
     2
100
AcDbLine
 10
1123.384991255695
 20
15.01666538411077
 30
0.0
 11
1124.849882269584
 21
12.39851826688711
 31
0.0
  0
LINE
  5
140
330
1F
100
AcDbEntity
  8
A_ACHSEN
  6
DOT_CENTER
 62
     2
100
AcDbLine
 10
1145.575968136474
 20
-0.06844466111945
 30
0.0
 11
1142.957821019251
 21
-1.53333567500871
 31
0.0
  0
LINE
  5
141
330
1F
100
AcDbEntity
  8
A_ACHSEN
  6
DOT_CENTER
 62
     2
100
AcDbLine
 10
1145.575968136474
 20
-0.06844466111945
 30
0.0
 11
1148.194115253698
 21
1.39644635276988
 31
0.0
  0
LINE
  5
142
330
1F
100
AcDbEntity
  8
DEFAULT_2
  6
HIDDEN
 62
     2
100
AcDbLine
 10
1147.092747742802
 20
-3.80333149017134
 30
0.0
 11
1147.529091050896
 21
-3.55919112586859
 31
0.0
  0
LINE
  5
143
330
1F
100
AcDbEntity
  8
A_ACHSEN
  6
Continuous
 62
     7
100
AcDbLine
 10
1147.092747742802
 20
-3.80333149017134
 30
0.0
 11
1147.529091050896
 21
-3.55919112586859
 31
0.0
  0
LINE
  5
144
330
1F
100
AcDbEntity
  8
A_ACHSEN
  6
Continuous
 62
     7
100
AcDbLine
 10
1139.394942993499
 20
-6.51995852406641
 30
0.0
 11
1135.251131639812
 21
-17.44449231975237
 31
0.0
  0
LINE
  5
145
330
1F
100
AcDbEntity
  8
A_ACHSEN
  6
Continuous
 62
     7
100
AcDbLine
 10
1132.240503170187
 20
-18.37802934781949
 30
0.0
 11
1129.121754938029
 21
-16.21267348935482
 31
0.0
  0
LINE
  5
146
330
1F
100
AcDbEntity
  8
A_ACHSEN
  6
DOT_CENTER
 62
     2
100
AcDbLine
 10
1145.575968136474
 20
-0.06844466111945
 30
0.0
 11
1144.111077122585
 21
2.54970245610424
 31
0.0
  0
LINE
  5
147
330
1F
100
AcDbEntity
  8
A_ACHSEN
  6
DOT_CENTER
 62
     2
100
AcDbLine
 10
1145.575968136474
 20
-0.06844466111945
 30
0.0
 11
1147.040859150364
 21
-2.68659177834307
 31
0.0
  0
LINE
  5
148
330
1F
100
AcDbEntity
  8
A_ACHSEN
  6
Continuous
 62
     7
100
AcDbLine
 10
1140.407174046445
 20
-20.76916933925879
 30
0.0
 11
1146.646031588638
 21
-4.32136217581485
 31
0.0
  0
LINE
  5
149
330
1F
100
AcDbEntity
  8
A_RUNDUNGEN
  6
Continuous
 62
     7
100
AcDbLine
 10
1137.451851955715
 20
20.5955030808183
 30
0.0
 11
1146.574584015918
 21
4.29077159010703
 31
0.0
  0
LINE
  5
14A
330
1F
100
AcDbEntity
  8
A_ACHSEN
  6
Continuous
 62
     7
100
AcDbLine
 10
1121.353281224217
 20
-18.12338439313587
 30
0.0
 11
1129.869974402695
 21
-24.03654893718302
 31
0.0
  0
LINE
  5
14B
330
1F
100
AcDbEntity
  8
A_ACHSEN
  6
Continuous
 62
     7
100
AcDbLine
 10
1135.509876296308
 20
15.0551168345699
 30
0.0
 11
1138.148737660079
 21
10.33877465839328
 31
0.0
  0
LINE
  5
14C
330
1F
100
AcDbEntity
  8
1
  6
Continuous
 62
     7
100
AcDbLine
 10
1095.902095171682
 20
60.14765030186169
 30
0.0
 11
1158.902095171683
 21
60.14765030186169
 31
0.0
  0
ARC
  5
14D
330
1F
100
AcDbEntity
  8
1
  6
Continuous
 62
     7
100
AcDbCircle
 10
1132.402060460483
 20
27.64760919966173
 30
0.0
 40
3.0
100
AcDbArc
 50
0.0
 51
207.8172517208208
  0
ARC
  5
14E
330
1F
100
AcDbEntity
  8
1
  6
Continuous
 62
     7
100
AcDbCircle
 10
1132.402060460483
 20
27.64760919966173
 30
0.0
 40
2.999999999999954
100
AcDbArc
 50
273.2330378920389
 51
342.766962108597
  0
ARC
  5
14F
330
1F
100
AcDbEntity
  8
1
  6
Continuous
 62
     7
100
AcDbCircle
 10
1132.402060460483
 20
27.64760919966173
 30
0.0
 40
2.99999999999946
100
AcDbArc
 50
342.766962108597
 51
0.0
  0
ARC
  5
150
330
1F
100
AcDbEntity
  8
1
  6
Continuous
 62
     7
100
AcDbCircle
 10
1132.402060460483
 20
27.64760919966173
 30
0.0
 40
3.000000000000274
100
AcDbArc
 50
207.8172517208208
 51
273.2330378920389
  0
ARC
  5
151
330
1F
100
AcDbEntity
  8
0
  6
DASHED
 62
     2
100
AcDbCircle
 10
1126.610922049483
 20
16.60912317236173
 30
0.0
 40
1.000000000003447
100
AcDbArc
 50
352.0001325870539
 51
43.95001951785797
  0
ARC
  5
152
330
1F
100
AcDbEntity
  8
0
  6
Continuous
 62
     7
100
AcDbCircle
 10
1115.649462168082
 20
14.0598296883617
 30
0.0
 40
1.000000000002323
100
AcDbArc
 50
172.0001325870444
 51
262.0001325871075
  0
ARC
  5
153
330
1F
100
AcDbEntity
  8
0
  6
Continuous
 62
     7
100
AcDbCircle
 10
1126.047280271383
 20
12.5985361896617
 30
0.0
 40
1.00000000013709
100
AcDbArc
 50
262.0001325862256
 51
352.0001325870567
  0
ARC
  5
154
330
1F
100
AcDbEntity
  8
0
  6
DASHED
 62
     2
100
AcDbCircle
 10
1126.610922049483
 20
16.60912317236173
 30
0.0
 40
1.000000000025962
100
AcDbArc
 50
43.95001951785797
 51
82.00013258774997
  0
ARC
  5
155
330
1F
100
AcDbEntity
  8
0
  6
Continuous
 62
     7
100
AcDbCircle
 10
1116.213103946083
 20
18.07041667106174
 30
0.0
 40
0.9999999999042531
100
AcDbArc
 50
82.00013258625825
 51
172.0001325870574
  0
ARC
  5
156
330
1F
100
AcDbEntity
  8
0
  6
Continuous
 62
     7
100
AcDbCircle
 10
1116.213094332583
 20
22.22479238676172
 30
0.0
 40
1.000000000015962
100
AcDbArc
 50
188.0001325857743
 51
278.0001325865722
  0
ARC
  5
157
330
1F
100
AcDbEntity
  8
0
  6
Continuous
 62
     7
100
AcDbCircle
 10
1126.610905672683
 20
23.68613400826169
 30
0.0
 40
1.000000000015846
100
AcDbArc
 50
278.0001325857755
 51
8.00013258578118
  0
ARC
  5
158
330
1F
100
AcDbEntity
  8
0
  6
Continuous
 62
     7
100
AcDbCircle
 10
1126.047245332983
 20
27.69671838226171
 30
0.0
 40
1.00000000001597
100
AcDbArc
 50
8.00013258577755
 51
98.00013258583908
  0
ARC
  5
159
330
1F
100
AcDbEntity
  8
0
  6
Continuous
 62
     7
100
AcDbCircle
 10
1115.649433992782
 20
26.23537676086173
 30
0.0
 40
0.9999999999168918
100
AcDbArc
 50
98.00013258657229
 51
188.0001325922577
  0
ARC
  5
15A
330
1F
100
AcDbEntity
  8
A_RUNDUNGEN
  6
Continuous
 62
     7
100
AcDbCircle
 10
1114.102060309283
 20
27.71295627486174
 30
0.0
 40
0.499999999965355
100
AcDbArc
 50
98.00013259224949
 51
180.0001325938964
  0
ARC
  5
15B
330
1F
100
AcDbEntity
  8
A_RUNDUNGEN
  6
Continuous
 62
     7
100
AcDbCircle
 10
1117.602055832283
 20
29.6476077429617
 30
0.0
 40
0.5000000000013386
100
AcDbArc
 50
90.00013258243865
 51
180.0001325824256
  0
ARC
  5
15C
330
1F
100
AcDbEntity
  8
A_RUNDUNGEN
  6
Continuous
 62
     7
100
AcDbCircle
 10
1129.102052592583
 20
31.04763435496173
 30
0.0
 40
0.5000000000013388
100
AcDbArc
 50
90.00013259390289
 51
180.0001325938895
  0
ARC
  5
15D
330
1F
100
AcDbEntity
  8
A_RUNDUNGEN
  6
Continuous
 62
     7
100
AcDbCircle
 10
1129.102103039583
 20
9.24763435516175
 30
0.0
 40
0.5000000000013386
100
AcDbArc
 50
180.0001325824387
 51
270.0001325824387
  0
ARC
  5
15E
330
1F
100
AcDbEntity
  8
A_RUNDUNGEN
  6
Continuous
 62
     7
100
AcDbCircle
 10
1117.602099799883
 20
10.64760774326172
 30
0.0
 40
0.5000000000013388
100
AcDbArc
 50
180.0001325938907
 51
270.0001325823084
  0
ARC
  5
15F
330
1F
100
AcDbEntity
  8
A_RUNDUNGEN
  6
Continuous
 62
     7
100
AcDbCircle
 10
1114.102095322982
 20
12.58224301286171
 30
0.0
 40
0.5000000000013388
100
AcDbArc
 50
180.0001325938895
 51
262.0001325871712
  0
ARC
  5
160
330
1F
100
AcDbEntity
  8
A_RUNDUNGEN
  6
Continuous
 62
     7
100
AcDbCircle
 10
1116.602098472783
 20
11.22106913876169
 30
0.0
 40
0.5000000000013388
100
AcDbArc
 50
0.00013259389639
 51
82.0001325870441
  0
ARC
  5
161
330
1F
100
AcDbEntity
  8
A_RUNDUNGEN
  6
Continuous
 62
     7
100
AcDbCircle
 10
1116.602057159382
 20
29.07414171926169
 30
0.0
 40
0.4999999999515859
100
AcDbArc
 50
278.0001325810259
 51
0.00013259389639
  0
ARC
  5
162
330
1F
100
AcDbEntity
  8
A_RUNDUNGEN
  6
Continuous
 62
     7
100
AcDbCircle
 10
1099.691233064815
 20
-33.70924924403605
 30
0.0
 40
1.000000000040374
100
AcDbArc
 50
45.00038306209658
 51
90.00038306238585
  0
ARC
  5
163
330
1F
100
AcDbEntity
  8
A_RUNDUNGEN
  6
Continuous
 62
     7
100
AcDbCircle
 10
1097.585810567814
 20
-13.69563107523655
 30
0.0
 40
1.000000000003194
100
AcDbArc
 50
73.00038307139748
 51
163.0003830659114
  0
ARC
  5
164
330
1F
100
AcDbEntity
  8
A_RUNDUNGEN
  6
Continuous
 62
     7
100
AcDbCircle
 10
1096.401731057914
 20
-17.56867325333631
 30
0.0
 40
1.000000000002006
100
AcDbArc
 50
163.0003830713873
 51
253.0003830659271
  0
ARC
  5
165
330
1F
100
AcDbEntity
  8
A_RUNDUNGEN
  6
Continuous
 62
     7
100
AcDbCircle
 10
1096.862733926314
 20
-22.93806069953623
 30
0.0
 40
0.9999999999367151
100
AcDbArc
 50
73.00038306418449
 51
180.0003830681261
  0
ARC
  5
166
330
1F
100
AcDbEntity
  8
A_RUNDUNGEN
  6
Continuous
 62
     7
100
AcDbCircle
 10
1096.862792568614
 20
-31.70926815433601
 30
0.0
 40
1.00000000002235
100
AcDbArc
 50
180.0003830681314
 51
270.0003830681309
  0
ARC
  5
167
330
1F
100
AcDbEntity
  8
A_RUNDUNGEN
  6
Continuous
 62
     7
100
AcDbCircle
 10
1102.219658183815
 20
-33.40923233963608
 30
0.0
 40
0.9999999999714013
100
AcDbArc
 50
225.0003830661038
 51
270.0003830680658
  0
ARC
  5
168
330
1F
100
AcDbEntity
  8
0
  6
Continuous
 62
     7
100
AcDbCircle
 10
1088.362646819015
 20
-9.90906826533605
 30
0.0
 40
1.000000000021915
100
AcDbArc
 50
90.00038306811793
 51
180.0003830624028
  0
ARC
  5
169
330
1F
100
AcDbEntity
  8
0
  6
Continuous
 62
     7
100
AcDbCircle
 10
1088.362823991914
 20
-36.40906826443646
 30
0.0
 40
1.00000000002235
100
AcDbArc
 50
180.0003830681037
 51
270.0003830681309
  0
ARC
  5
16A
330
1F
100
AcDbEntity
  8
0
  6
DASHED
 62
     2
100
AcDbCircle
 10
1125.362687601414
 20
-16.00907761043669
 30
0.0
 40
2.99999999996687
100
AcDbArc
 50
270.0003830662289
 51
0.00038306621835
  0
ARC
  5
16B
330
1F
100
AcDbEntity
  8
A_RUNDUNGEN
  6
Continuous
 62
     7
100
AcDbCircle
 10
1121.862784114114
 20
-30.44463491603634
 30
0.0
 40
2.499999999962026
100
AcDbArc
 50
135.0003830669483
 51
180.000383068122
  0
ARC
  5
16C
330
1F
100
AcDbEntity
  8
A_RUNDUNGEN
  6
Continuous
 62
     7
100
AcDbCircle
 10
1121.493478334614
 20
-21.00476385223643
 30
0.0
 40
0.9999999999941657
100
AcDbArc
 50
32.24086913162503
 51
73.00038306651973
  0
ARC
  5
16D
330
1F
100
AcDbEntity
  8
A_RUNDUNGEN
  6
DASHED
 62
     2
100
AcDbCircle
 10
1120.309398824714
 20
-24.87780603033669
 30
0.0
 40
1.000000000017482
100
AcDbArc
 50
253.000383066621
 51
343.0003830642787
  0
ARC
  5
16E
330
1F
100
AcDbEntity
  8
A_RUNDUNGEN
  6
Continuous
 62
     7
100
AcDbCircle
 10
1115.362771740814
 20
-28.59395461963647
 30
0.0
 40
0.9999999999223055
100
AcDbArc
 50
0.00038306813933
 51
73.00038307140031
  0
ARC
  5
16F
330
1F
100
AcDbEntity
  8
A_RUNDUNGEN
  6
Continuous
 62
     7
100
AcDbCircle
 10
1115.362803934014
 20
-33.40914446753661
 30
0.0
 40
1.000000000021973
100
AcDbArc
 50
270.0003830681831
 51
0.00038306812851
  0
ARC
  5
170
330
1F
100
AcDbEntity
  8
A_RUNDUNGEN
  6
DASHED
 62
     2
100
AcDbCircle
 10
1121.493478334614
 20
-21.00476385223643
 30
0.0
 40
0.9999999999072311
100
AcDbArc
 50
343.0003830697212
 51
32.24086913162503
  0
ARC
  5
171
330
1F
100
AcDbEntity
  8
0
  6
Continuous
 62
     7
100
AcDbCircle
 10
1133.753511377086
 20
6.00736288201458
 30
0.0
 40
6.00000000000192
100
AcDbArc
 50
329.0049999999601
 51
4.00500000036553
  0
ARC
  5
172
330
1F
100
AcDbEntity
  8
A_ACHSEN
  6
Continuous
 62
     7
100
AcDbCircle
 10
1132.464634480634
 20
13.04273109718824
 30
0.0
 40
3.99999999994261
100
AcDbArc
 50
89.0050000009839
 51
274.0049999987652
  0
ARC
  5
173
330
1F
100
AcDbEntity
  8
A_RUNDUNGEN
  6
HIDDEN
 62
     2
100
AcDbCircle
 10
1132.52708915087
 20
15.04194801541287
 30
0.0
 40
2.000000000018918
100
AcDbArc
 50
29.00500000133968
 51
89.0050000022172
  0
ARC
  5
174
330
1F
100
AcDbEntity
  8
0
  6
Continuous
 62
     7
100
AcDbCircle
 10
1132.52708915087
 20
15.04194801541287
 30
0.0
 40
2.000000000018918
100
AcDbArc
 50
29.00500000133968
 51
89.0050000022172
  0
ARC
  5
175
330
1F
100
AcDbEntity
  8
0
  6
DASHED
 62
     2
100
AcDbCircle
 10
1137.174374208052
 20
10.96063179461204
 30
0.0
 40
5.999999999956469
100
AcDbArc
 50
63.69532613157125
 51
89.00500000043067
  0
ARC
  5
176
330
1F
100
AcDbEntity
  8
A_RUNDUNGEN
  6
Continuous
 62
     7
100
AcDbCircle
 10
1137.666342108719
 20
7.39223797074111
 30
0.0
 40
1.999999999911524
100
AcDbArc
 50
54.72222771353365
 51
94.00499999800715
  0
ARC
  5
177
330
1F
100
AcDbEntity
  8
A_RUNDUNGEN
  6
Continuous
 62
     7
100
AcDbCircle
 10
1136.297470058023
 20
10.30374112811794
 30
0.0
 40
0.9999999999997845
100
AcDbArc
 50
274.0050000000441
 51
29.00499999907572
  0
ARC
  5
178
330
1F
100
AcDbEntity
  8
0
  6
Continuous
 62
     7
100
AcDbCircle
 10
1141.84167370123
 20
-3.83164606849638
 30
0.0
 40
6.000000000000886
100
AcDbArc
 50
149.0049999999555
 51
171.0049999999968
  0
ARC
  5
179
330
1F
100
AcDbEntity
  8
0
  6
DASHED
 62
     2
100
AcDbCircle
 10
1143.057555320906
 20
-5.74449935521585
 30
0.0
 40
1.999999999999742
100
AcDbArc
 50
81.00500000003196
 51
171.0050000000089
  0
ARC
  5
17A
330
1F
100
AcDbEntity
  8
A_RUNDUNGEN
  6
DASHED
 62
     2
100
AcDbCircle
 10
1129.274264981299
 20
-18.03569680599907
 30
0.0
 40
9.000000000019504
100
AcDbArc
 50
306.8244344531066
 51
343.0050000002769
  0
ARC
  5
17B
330
1F
100
AcDbEntity
  8
A_RUNDUNGEN
  6
Continuous
 62
     7
100
AcDbCircle
 10
1127.090245885838
 20
-13.87342369675844
 30
0.0
 40
7.000000000000731
100
AcDbArc
 50
319.0230731787848
 51
351.0049999999987
  0
ARC
  5
17C
330
1F
100
AcDbEntity
  8
A_ACHSEN
  6
Continuous
 62
     7
100
AcDbCircle
 10
1117.80606533507
 20
-21.99633782030351
 30
0.0
 40
4.250000000000933
100
AcDbArc
 50
32.8748976458028
 51
266.0049999989662
  0
ARC
  5
17D
330
1F
100
AcDbEntity
  8
A_ACHSEN
  6
Continuous
 62
     7
100
AcDbCircle
 10
1123.055176327802
 20
-18.60379691625834
 30
0.0
 40
1.999999999970301
100
AcDbArc
 50
212.8748976473533
 51
266.0050000001053
  0
ARC
  5
17E
330
1F
100
AcDbEntity
  8
A_RUNDUNGEN
  6
Continuous
 62
     7
100
AcDbCircle
 10
1131.588843859076
 20
-26.21449406587735
 30
0.0
 40
0.5000000000000596
100
AcDbArc
 50
285.8013785039154
 51
56.00499999602714
  0
ARC
  5
17F
330
1F
100
AcDbEntity
  8
A_RUNDUNGEN
  6
Continuous
 62
     7
100
AcDbCircle
 10
1129.274264981299
 20
-18.03569680599907
 30
0.0
 40
8.999999999980332
100
AcDbArc
 50
266.0050000004678
 51
306.8244344531066
  0
ARC
  5
180
330
1F
100
AcDbEntity
  8
A_RUNDUNGEN
  6
DASHED
 62
     2
100
AcDbCircle
 10
1127.090245885838
 20
-13.87342369675844
 30
0.0
 40
6.999999999955236
100
AcDbArc
 50
266.0049999997551
 51
319.0230731787848
  0
ARC
  5
181
330
1F
100
AcDbEntity
  8
A_RUNDUNGEN
  6
DASHED
 62
     2
100
AcDbCircle
 10
1137.666342108719
 20
7.39223797074111
 30
0.0
 40
2.000000000032107
100
AcDbArc
 50
4.00500000014805
 51
54.72222771353365
  0
ARC
  5
182
330
1F
100
AcDbEntity
  8
0
  6
Continuous
 62
     7
100
AcDbCircle
 10
1137.174374208052
 20
10.96063179461204
 30
0.0
 40
5.999999999934858
100
AcDbArc
 50
29.00499999983123
 51
63.69532613157125
  0
ARC
  5
183
330
1F
100
AcDbEntity
  8
DEFAULT_2
  6
DASHED
 62
     2
100
AcDbCircle
 10
1145.575968136474
 20
-0.06844466111945
 30
0.0
 40
3.999999999999517
100
AcDbArc
 50
261.0049999999991
 51
309.7495438022081
  0
ARC
  5
184
330
1F
100
AcDbEntity
  8
A_ACHSEN
  6
Continuous
 62
     7
100
AcDbCircle
 10
1120.695005336333
 20
0.57316008628366
 30
0.0
 40
20.00000000005969
100
AcDbArc
 50
339.2276413643538
 51
29.22764136424151
  0
ARC
  5
185
330
1F
100
AcDbEntity
  8
A_ACHSEN
  6
Continuous
 62
     7
100
AcDbCircle
 10
1123.384991255695
 20
15.01666538411077
 30
0.0
 40
4.000000000000104
100
AcDbArc
 50
119.2276413642411
 51
345.3085733513481
  0
ARC
  5
186
330
1F
100
AcDbEntity
  8
A_ACHSEN
  6
Continuous
 62
     7
100
AcDbCircle
 10
1132.215732258592
 20
17.66581870918547
 30
0.0
 40
5.999999999999144
100
AcDbArc
 50
29.22764136424444
 51
119.2276413642406
  0
ARC
  5
187
330
1F
100
AcDbEntity
  8
A_ACHSEN
  6
Continuous
 62
     7
100
AcDbCircle
 10
1123.862677572815
 20
-14.50911683723649
 30
0.0
 40
4.399999999999335
100
AcDbArc
 50
359.4565076920342
 51
235.2276413646595
  0
ARC
  5
188
330
1F
100
AcDbEntity
  8
A_ACHSEN
  6
Continuous
 62
     7
100
AcDbCircle
 10
1130.262389641941
 20
-14.56982460029705
 30
0.0
 40
2.000000000017117
100
AcDbArc
 50
179.4565076925551
 51
235.2276413647783
  0
ARC
  5
189
330
1F
100
AcDbEntity
  8
A_ACHSEN
  6
Continuous
 62
     7
100
AcDbCircle
 10
1133.862195866434
 20
-18.28657782556966
 30
0.0
 40
6.99999999999465
100
AcDbArc
 50
235.2276413640471
 51
339.227641363853
  0
ARC
  5
18A
330
1F
100
AcDbEntity
  8
A_ACHSEN
  6
Continuous
 62
     7
100
AcDbCircle
 10
1133.381137874098
 20
-16.7351804587623
 30
0.0
 40
2.000000000010653
100
AcDbArc
 50
235.2276413647901
 51
339.2276413655318
  0
ARC
  5
18B
330
1F
100
AcDbEntity
  8
A_ACHSEN
  6
Continuous
 62
     7
100
AcDbCircle
 10
1147.581028471408
 20
-4.67601810635856
 30
0.0
 40
1.000000000000163
100
AcDbArc
 50
119.2276413642703
 51
159.2276413611571
  0
ARC
  5
18C
330
1F
100
AcDbEntity
  8
A_RUNDUNGEN
  6
HIDDEN
 62
     2
100
AcDbCircle
 10
1131.594313286299
 20
12.86430294563828
 30
0.0
 40
4.486791635599596
100
AcDbArc
 50
29.22764136424151
 51
81.59431029706548
  0
ARC
  5
18D
330
1F
100
AcDbEntity
  8
A_ACHSEN
  6
Continuous
 62
     7
100
AcDbCircle
 10
1131.594313286299
 20
12.86430294563828
 30
0.0
 40
4.486791635599596
100
AcDbArc
 50
29.22764136424151
 51
165.3085733518448
  0
ARC
  5
18E
330
1F
100
AcDbEntity
  8
A_ACHSEN
  6
Continuous
 62
     7
100
AcDbCircle
 10
1145.575968136474
 20
-0.06844466111945
 30
0.0
 40
3.999999999999868
100
AcDbArc
 50
299.2276413642429
 51
62.78495112614937
  0
ARC
  5
18F
330
1F
100
AcDbEntity
  8
A_ACHSEN
  6
Continuous
 62
     7
100
AcDbCircle
 10
1148.319957248292
 20
5.26733304731796
 30
0.0
 40
1.999999999999444
100
AcDbArc
 50
209.2276413642484
 51
242.7849511248658
  0
CIRCLE
  5
190
330
1F
100
AcDbEntity
  8
1
  6
DASHED
 62
     2
100
AcDbCircle
 10
1132.402095171683
 20
12.64765030186172
 30
0.0
 40
3.0
  0
CIRCLE
  5
191
330
1F
100
AcDbEntity
  8
A_ACHSEN
  6
DASHED
 62
     2
100
AcDbCircle
 10
1123.862677572814
 20
-14.50908202413671
 30
0.0
 40
4.0
  0
CIRCLE
  5
192
330
1F
100
AcDbEntity
  8
0
  6
Continuous
 62
     7
100
AcDbCircle
 10
1123.862677572814
 20
-14.50908427013661
 30
0.0
 40
2.0400000000011
  0
CIRCLE
  5
193
330
1F
100
AcDbEntity
  8
A_ACHSEN
  6
Continuous
 62
     7
100
AcDbCircle
 10
1132.402095171683
 20
12.64765030186172
 30
0.0
 40
1.661324865400074
  0
CIRCLE
  5
194
330
1F
100
AcDbEntity
  8
A_ACHSEN
  6
Continuous
 62
     7
100
AcDbCircle
 10
1117.80606533507
 20
-21.99633782030351
 30
0.0
 40
1.661324865399878
  0
CIRCLE
  5
195
330
1F
100
AcDbEntity
  8
A_ACHSEN
  6
Continuous
 62
     7
100
AcDbCircle
 10
1123.384991255695
 20
15.01666538411077
 30
0.0
 40
1.949999999999635
  0
CIRCLE
  5
196
330
1F
100
AcDbEntity
  8
0
  6
Continuous
 62
     7
100
AcDbCircle
 10
1145.575968136474
 20
-0.06844466111945
 30
0.0
 40
2.024999999999762
  0
ARC
  5
197
330
1F
100
AcDbEntity
  8
1
  6
Continuous
 62
     7
100
AcDbCircle
 10
1111.402121915192
 20
8.64775875860773
 30
0.0
 40
1.000000000000522
100
AcDbArc
 50
180.0003830663088
 51
270.0003830662811
  0
ARC
  5
198
330
1F
100
AcDbEntity
  8
1
  6
Continuous
 62
     7
100
AcDbCircle
 10
1111.451962125329
 20
32.59775875775738
 30
0.0
 40
1.051190120090165
100
AcDbArc
 50
92.72667499381942
 51
182.7266749935136
  0
ENDSEC
  0
SECTION
  2
OBJECTS
  0
DICTIONARY
  5
C
330
0
100
AcDbDictionary
281
     1
  3
ACAD_GROUP
350
D
  3
ACAD_LAYOUT
350
1A
  3
ACAD_MATERIAL
350
3B
  3
ACAD_MLEADERSTYLE
350
19A
  3
ACAD_MLINESTYLE
350
17
  3
ACAD_PLOTSETTINGS
350
19
  3
ACAD_PLOTSTYLENAME
350
E
  3
ACAD_TABLESTYLE
350
199
  3
ACAD_VISUALSTYLE
350
2A
  0
DICTIONARY
  5
D
102
{ACAD_REACTORS
330
C
102
}
330
C
100
AcDbDictionary
281
     1
  0
DICTIONARY
  5
1A
102
{ACAD_REACTORS
330
C
102
}
330
C
100
AcDbDictionary
281
     1
  3
Layout1
350
1E
  3
Layout2
350
26
  3
Model
350
22
  0
DICTIONARY
  5
3B
102
{ACAD_REACTORS
330
C
102
}
330
C
100
AcDbDictionary
281
     1
  3
ByBlock
350
3D
  3
ByLayer
350
3C
  3
Global
350
3E
  0
DICTIONARY
  5
19A
102
{ACAD_REACTORS
330
C
102
}
330
C
100
AcDbDictionary
281
     1
  0
DICTIONARY
  5
17
102
{ACAD_REACTORS
330
C
102
}
330
C
100
AcDbDictionary
281
     1
  3
Standard
350
18
  0
DICTIONARY
  5
19
102
{ACAD_REACTORS
330
C
102
}
330
C
100
AcDbDictionary
281
     1
  0
ACDBDICTIONARYWDFLT
  5
E
102
{ACAD_REACTORS
330
C
102
}
330
C
100
AcDbDictionary
281
     1
  3
Normal
350
F
100
AcDbDictionaryWithDefault
340
F
  0
DICTIONARY
  5
199
102
{ACAD_REACTORS
330
C
102
}
330
C
100
AcDbDictionary
281
     1
  0
DICTIONARY
  5
2A
102
{ACAD_REACTORS
330
C
102
}
330
C
100
AcDbDictionary
281
     1
  3
2dWireframe
350
2F
  3
3D Hidden
350
31
  3
3dWireframe
350
30
  3
Basic
350
32
  3
Brighten
350
36
  3
ColorChange
350
3A
  3
Conceptual
350
34
  3
Dim
350
35
  3
Facepattern
350
39
  3
Flat
350
2B
  3
FlatWithEdges
350
2C
  3
Gouraud
350
2D
  3
GouraudWithEdges
350
2E
  3
Linepattern
350
38
  3
Realistic
350
33
  3
Thicken
350
37
  0
LAYOUT
  5
1E
102
{ACAD_REACTORS
330
1A
102
}
330
1A
100
AcDbPlotSettings
  1

  2
none_device
  4

  6

 40
0.0
 41
0.0
 42
0.0
 43
0.0
 44
0.0
 45
0.0
 46
0.0
 47
0.0
 48
0.0
 49
0.0
140
0.0
141
0.0
142
1.0
143
1.0
 70
   688
 72
     0
 73
     0
 74
     5
  7

 75
    16
 76
     0
 77
     2
 78
   300
147
1.0
148
0.0
149
0.0
100
AcDbLayout
  1
Layout1
 70
     1
 71
     1
 10
0.0
 20
0.0
 11
12.0
 21
9.0
 12
0.0
 22
0.0
 32
0.0
 14
1.00000000000000E+20
 24
1.00000000000000E+20
 34
1.00000000000000E+20
 15
-1.00000000000000E+20
 25
-1.00000000000000E+20
 35
-1.00000000000000E+20
146
0.0
 13
0.0
 23
0.0
 33
0.0
 16
1.0
 26
0.0
 36
0.0
 17
0.0
 27
1.0
 37
0.0
 76
     0
330
1B
  0
LAYOUT
  5
26
102
{ACAD_REACTORS
330
1A
102
}
330
1A
100
AcDbPlotSettings
  1

  2
none_device
  4

  6

 40
0.0
 41
0.0
 42
0.0
 43
0.0
 44
0.0
 45
0.0
 46
0.0
 47
0.0
 48
0.0
 49
0.0
140
0.0
141
0.0
142
1.0
143
1.0
 70
   688
 72
     0
 73
     0
 74
     5
  7

 75
    16
 76
     0
 77
     2
 78
   300
147
1.0
148
0.0
149
0.0
100
AcDbLayout
  1
Layout2
 70
     1
 71
     2
 10
0.0
 20
0.0
 11
0.0
 21
0.0
 12
0.0
 22
0.0
 32
0.0
 14
0.0
 24
0.0
 34
0.0
 15
0.0
 25
0.0
 35
0.0
146
0.0
 13
0.0
 23
0.0
 33
0.0
 16
1.0
 26
0.0
 36
0.0
 17
0.0
 27
1.0
 37
0.0
 76
     0
330
23
  0
LAYOUT
  5
22
102
{ACAD_REACTORS
330
1A
102
}
330
1A
100
AcDbPlotSettings
  1

  2
none_device
  4

  6

 40
0.0
 41
0.0
 42
0.0
 43
0.0
 44
0.0
 45
0.0
 46
0.0
 47
0.0
 48
0.0
 49
0.0
140
0.0
141
0.0
142
1.0
143
1.0
 70
  1712
 72
     0
 73
     0
 74
     0
  7

 75
     0
 76
     0
 77
     2
 78
   300
147
1.0
148
0.0
149
0.0
100
AcDbLayout
  1
Model
 70
     1
 71
     0
 10
0.0
 20
0.0
 11
12.0
 21
9.0
 12
0.0
 22
0.0
 32
0.0
 14
1062.498788683925
 24
-44.79761067598889
 34
0.0
 15
1158.902095171683
 25
62.63005001241072
 35
0.0
146
0.0
 13
0.0
 23
0.0
 33
0.0
 16
1.0
 26
0.0
 36
0.0
 17
0.0
 27
1.0
 37
0.0
 76
     0
330
1F
331
29
  0
MATERIAL
  5
3D
102
{ACAD_REACTORS
330
3B
102
}
330
3B
100
AcDbMaterial
  1
ByBlock
 72
     1
 94
      127
  0
MATERIAL
  5
3C
102
{ACAD_REACTORS
330
3B
102
}
330
3B
100
AcDbMaterial
  1
ByLayer
 72
     1
 94
      127
  0
MATERIAL
  5
3E
102
{ACAD_REACTORS
330
3B
102
}
330
3B
100
AcDbMaterial
  1
Global
 72
     1
 94
      127
  0
MLINESTYLE
  5
18
102
{ACAD_REACTORS
330
17
102
}
330
17
100
AcDbMlineStyle
  2
Standard
 70
     0
  3

 62
   256
 51
90.0
 52
90.0
 71
     2
 49
0.5
 62
   256
  6
BYLAYER
 49
-0.5
 62
   256
  6
BYLAYER
  0
ACDBPLACEHOLDER
  5
F
102
{ACAD_REACTORS
330
E
102
}
330
E
  0
VISUALSTYLE
  5
2F
102
{ACAD_REACTORS
330
2A
102
}
330
2A
100
AcDbVisualStyle
  2
2dWireframe
 70
     4
177
     2
291
     0
 71
     0
176
     1
 72
     2
176
     1
 73
     0
176
     1
 90
        0
176
     1
 40
-0.6
176
     1
 41
-30.0
176
     1
 62
     5
 63
     7
421
 16777215
176
     1
 74
     1
176
     1
 91
        4
176
     1
 64
     7
176
     1
 65
   257
176
     1
 75
     1
176
     1
175
     1
176
     1
 42
1.0
176
     1
 92
        0
176
     1
 66
   257
176
     1
 43
1.0
176
     1
 76
     1
176
     1
 77
     6
176
     1
 78
     2
176
     1
 67
     7
176
     1
 79
     5
176
     1
170
     0
176
     1
171
     0
176
     1
290
     0
176
     1
 93
        1
176
     1
 44
0.0
176
     1
173
     0
176
     1
  0
VISUALSTYLE
  5
31
102
{ACAD_REACTORS
330
2A
102
}
330
2A
100
AcDbVisualStyle
  2
3D Hidden
 70
     6
177
     2
291
     0
 71
     1
176
     1
 72
     2
176
     1
 73
     2
176
     1
 90
        0
176
     1
 40
-0.6
176
     1
 41
-30.0
176
     1
 62
     5
 63
     7
421
 16777215
176
     1
 74
     2
176
     1
 91
        2
176
     1
 64
     7
176
     1
 65
   257
176
     1
 75
     2
176
     1
175
     1
176
     1
 42
40.0
176
     1
 92
        0
176
     1
 66
   257
176
     1
 43
1.0
176
     1
 76
     1
176
     1
 77
     6
176
     1
 78
     2
176
     1
 67
     7
176
     1
 79
     3
176
     1
170
     0
176
     1
171
     0
176
     1
290
     0
176
     1
 93
        1
176
     1
 44
0.0
176
     1
173
     0
176
     1
  0
VISUALSTYLE
  5
30
102
{ACAD_REACTORS
330
2A
102
}
330
2A
100
AcDbVisualStyle
  2
3dWireframe
 70
     5
177
     2
291
     0
 71
     0
176
     1
 72
     2
176
     1
 73
     0
176
     1
 90
        0
176
     1
 40
-0.6
176
     1
 41
-30.0
176
     1
 62
     5
 63
     7
421
 16777215
176
     1
 74
     1
176
     1
 91
        4
176
     1
 64
     7
176
     1
 65
   257
176
     1
 75
     1
176
     1
175
     1
176
     1
 42
1.0
176
     1
 92
        0
176
     1
 66
   257
176
     1
 43
1.0
176
     1
 76
     1
176
     1
 77
     6
176
     1
 78
     2
176
     1
 67
     7
176
     1
 79
     5
176
     1
170
     0
176
     1
171
     0
176
     1
290
     0
176
     1
 93
        1
176
     1
 44
0.0
176
     1
173
     0
176
     1
  0
VISUALSTYLE
  5
32
102
{ACAD_REACTORS
330
2A
102
}
330
2A
100
AcDbVisualStyle
  2
Basic
 70
     7
177
     2
291
     1
 71
     1
176
     1
 72
     0
176
     1
 73
     1
176
     1
 90
        0
176
     1
 40
-0.6
176
     1
 41
-30.0
176
     1
 62
     5
 63
     7
421
 16777215
176
     1
 74
     0
176
     1
 91
        4
176
     1
 64
     7
176
     1
 65
   257
176
     1
 75
     1
176
     1
175
     1
176
     1
 42
1.0
176
     1
 92
        8
176
     1
 66
     7
176
     1
 43
1.0
176
     1
 76
     1
176
     1
 77
     6
176
     1
 78
     2
176
     1
 67
     7
176
     1
 79
     5
176
     1
170
     0
176
     1
171
     0
176
     1
290
     0
176
     1
 93
        1
176
     1
 44
0.0
176
     1
173
     0
176
     1
  0
VISUALSTYLE
  5
36
102
{ACAD_REACTORS
330
2A
102
}
330
2A
100
AcDbVisualStyle
  2
Brighten
 70
    12
177
     2
291
     1
 71
     2
176
     1
 72
     2
176
     1
 73
     0
176
     1
 90
        0
176
     1
 40
-0.6
176
     1
 41
-30.0
176
     1
 62
     5
 63
     7
421
 16777215
176
     1
 74
     1
176
     1
 91
        4
176
     1
 64
     7
176
     1
 65
   257
176
     1
 75
     1
176
     1
175
     1
176
     1
 42
1.0
176
     1
 92
        8
176
     1
 66
     7
176
     1
 43
1.0
176
     1
 76
     1
176
     1
 77
     6
176
     1
 78
     2
176
     1
 67
     7
176
     1
 79
     5
176
     1
170
     0
176
     1
171
     0
176
     1
290
     0
176
     1
 93
        1
176
     1
 44
50.0
176
     1
173
     0
176
     1
  0
VISUALSTYLE
  5
3A
102
{ACAD_REACTORS
330
2A
102
}
330
2A
100
AcDbVisualStyle
  2
ColorChange
 70
    16
177
     2
291
     1
 71
     2
176
     1
 72
     2
176
     1
 73
     3
176
     1
 90
        0
176
     1
 40
-0.6
176
     1
 41
-30.0
176
     1
 62
     5
 63
     8
421
  8421504
176
     1
 74
     1
176
     1
 91
        4
176
     1
 64
     7
176
     1
 65
   257
176
     1
 75
     1
176
     1
175
     1
176
     1
 42
1.0
176
     1
 92
        8
176
     1
 66
     8
424
  8421504
176
     1
 43
1.0
176
     1
 76
     1
176
     1
 77
     6
176
     1
 78
     2
176
     1
 67
     7
176
     1
 79
     5
176
     1
170
     0
176
     1
171
     0
176
     1
290
     0
176
     1
 93
        1
176
     1
 44
0.0
176
     1
173
     0
176
     1
  0
VISUALSTYLE
  5
34
102
{ACAD_REACTORS
330
2A
102
}
330
2A
100
AcDbVisualStyle
  2
Conceptual
 70
     9
177
     2
291
     0
 71
     3
176
     1
 72
     2
176
     1
 73
     0
176
     1
 90
        0
176
     1
 40
-0.6
176
     1
 41
-30.0
176
     1
 62
     5
 63
     7
421
 16777215
176
     1
 74
     2
176
     1
 91
        2
176
     1
 64
     7
176
     1
 65
   257
176
     1
 75
     1
176
     1
175
     1
176
     1
 42
40.0
176
     1
 92
        8
176
     1
 66
     7
176
     1
 43
1.0
176
     1
 76
     1
176
     1
 77
     6
176
     1
 78
     2
176
     1
 67
     7
176
     1
 79
     3
176
     1
170
     0
176
     1
171
     0
176
     1
290
     0
176
     1
 93
        1
176
     1
 44
0.0
176
     1
173
     0
176
     1
  0
VISUALSTYLE
  5
35
102
{ACAD_REACTORS
330
2A
102
}
330
2A
100
AcDbVisualStyle
  2
Dim
 70
    11
177
     2
291
     1
 71
     2
176
     1
 72
     2
176
     1
 73
     0
176
     1
 90
        0
176
     1
 40
-0.6
176
     1
 41
-30.0
176
     1
 62
     5
 63
     7
421
 16777215
176
     1
 74
     1
176
     1
 91
        4
176
     1
 64
     7
176
     1
 65
   257
176
     1
 75
     1
176
     1
175
     1
176
     1
 42
1.0
176
     1
 92
        8
176
     1
 66
     7
176
     1
 43
1.0
176
     1
 76
     1
176
     1
 77
     6
176
     1
 78
     2
176
     1
 67
     7
176
     1
 79
     5
176
     1
170
     0
176
     1
171
     0
176
     1
290
     0
176
     1
 93
        1
176
     1
 44
-50.0
176
     1
173
     0
176
     1
  0
VISUALSTYLE
  5
39
102
{ACAD_REACTORS
330
2A
102
}
330
2A
100
AcDbVisualStyle
  2
Facepattern
 70
    15
177
     2
291
     1
 71
     2
176
     1
 72
     2
176
     1
 73
     0
176
     1
 90
        0
176
     1
 40
-0.6
176
     1
 41
-30.0
176
     1
 62
     5
 63
     7
421
 16777215
176
     1
 74
     1
176
     1
 91
        4
176
     1
 64
     7
176
     1
 65
   257
176
     1
 75
     1
176
     1
175
     1
176
     1
 42
1.0
176
     1
 92
        8
176
     1
 66
     7
176
     1
 43
1.0
176
     1
 76
     1
176
     1
 77
     6
176
     1
 78
     2
176
     1
 67
     7
176
     1
 79
     5
176
     1
170
     0
176
     1
171
     0
176
     1
290
     0
176
     1
 93
        1
176
     1
 44
0.0
176
     1
173
     0
176
     1
  0
VISUALSTYLE
  5
2B
102
{ACAD_REACTORS
330
2A
102
}
330
2A
100
AcDbVisualStyle
  2
Flat
 70
     0
177
     2
291
     1
 71
     2
176
     1
 72
     1
176
     1
 73
     1
176
     1
 90
        2
176
     1
 40
-0.6
176
     1
 41
30.0
176
     1
 62
     5
 63
     7
421
 16777215
176
     1
 74
     0
176
     1
 91
        4
176
     1
 64
     7
176
     1
 65
   257
176
     1
 75
     1
176
     1
175
     1
176
     1
 42
1.0
176
     1
 92
        8
176
     1
 66
     7
176
     1
 43
1.0
176
     1
 76
     1
176
     1
 77
     6
176
     1
 78
     2
176
     1
 67
     7
176
     1
 79
     5
176
     1
170
     0
176
     1
171
     0
176
     1
290
     0
176
     1
 93
       13
176
     1
 44
0.0
176
     1
173
     0
176
     1
  0
VISUALSTYLE
  5
2C
102
{ACAD_REACTORS
330
2A
102
}
330
2A
100
AcDbVisualStyle
  2
FlatWithEdges
 70
     1
177
     2
291
     1
 71
     2
176
     1
 72
     1
176
     1
 73
     1
176
     1
 90
        2
176
     1
 40
-0.6
176
     1
 41
30.0
176
     1
 62
     5
 63
     7
421
 16777215
176
     1
 74
     1
176
     1
 91
        4
176
     1
 64
     7
176
     1
 65
   257
176
     1
 75
     1
176
     1
175
     1
176
     1
 42
1.0
176
     1
 92
        0
176
     1
 66
   257
176
     1
 43
1.0
176
     1
 76
     1
176
     1
 77
     6
176
     1
 78
     2
176
     1
 67
     7
176
     1
 79
     5
176
     1
170
     0
176
     1
171
     0
176
     1
290
     0
176
     1
 93
       13
176
     1
 44
0.0
176
     1
173
     0
176
     1
  0
VISUALSTYLE
  5
2D
102
{ACAD_REACTORS
330
2A
102
}
330
2A
100
AcDbVisualStyle
  2
Gouraud
 70
     2
177
     2
291
     1
 71
     2
176
     1
 72
     2
176
     1
 73
     1
176
     1
 90
        2
176
     1
 40
-0.6
176
     1
 41
30.0
176
     1
 62
     5
 63
     7
421
 16777215
176
     1
 74
     0
176
     1
 91
        4
176
     1
 64
     7
176
     1
 65
   257
176
     1
 75
     1
176
     1
175
     1
176
     1
 42
1.0
176
     1
 92
        0
176
     1
 66
     7
176
     1
 43
1.0
176
     1
 76
     1
176
     1
 77
     6
176
     1
 78
     2
176
     1
 67
     7
176
     1
 79
     5
176
     1
170
     0
176
     1
171
     0
176
     1
290
     0
176
     1
 93
       13
176
     1
 44
0.0
176
     1
173
     0
176
     1
  0
VISUALSTYLE
  5
2E
102
{ACAD_REACTORS
330
2A
102
}
330
2A
100
AcDbVisualStyle
  2
GouraudWithEdges
 70
     3
177
     2
291
     1
 71
     2
176
     1
 72
     2
176
     1
 73
     1
176
     1
 90
        2
176
     1
 40
-0.6
176
     1
 41
30.0
176
     1
 62
     5
 63
     7
421
 16777215
176
     1
 74
     1
176
     1
 91
        4
176
     1
 64
     7
176
     1
 65
   257
176
     1
 75
     1
176
     1
175
     1
176
     1
 42
1.0
176
     1
 92
        0
176
     1
 66
   257
176
     1
 43
1.0
176
     1
 76
     1
176
     1
 77
     6
176
     1
 78
     2
176
     1
 67
     7
176
     1
 79
     5
176
     1
170
     0
176
     1
171
     0
176
     1
290
     0
176
     1
 93
       13
176
     1
 44
0.0
176
     1
173
     0
176
     1
  0
VISUALSTYLE
  5
38
102
{ACAD_REACTORS
330
2A
102
}
330
2A
100
AcDbVisualStyle
  2
Linepattern
 70
    14
177
     2
291
     1
 71
     2
176
     1
 72
     2
176
     1
 73
     0
176
     1
 90
        0
176
     1
 40
-0.6
176
     1
 41
-30.0
176
     1
 62
     5
 63
     7
421
 16777215
176
     1
 74
     1
176
     1
 91
        4
176
     1
 64
     7
176
     1
 65
   257
176
     1
 75
     7
176
     1
175
     7
176
     1
 42
1.0
176
     1
 92
        8
176
     1
 66
     7
176
     1
 43
1.0
176
     1
 76
     1
176
     1
 77
     6
176
     1
 78
     2
176
     1
 67
     7
176
     1
 79
     5
176
     1
170
     0
176
     1
171
     0
176
     1
290
     0
176
     1
 93
        1
176
     1
 44
0.0
176
     1
173
     0
176
     1
  0
VISUALSTYLE
  5
33
102
{ACAD_REACTORS
330
2A
102
}
330
2A
100
AcDbVisualStyle
  2
Realistic
 70
     8
177
     2
291
     0
 71
     2
176
     1
 72
     2
176
     1
 73
     0
176
     1
 90
        0
176
     1
 40
-0.6
176
     1
 41
-30.0
176
     1
 62
     5
 63
     7
421
 16777215
176
     1
 74
     1
176
     1
 91
        0
176
     1
 64
     7
176
     1
 65
   257
176
     1
 75
     1
176
     1
175
     1
176
     1
 42
1.0
176
     1
 92
        8
176
     1
 66
     8
424
  7895160
176
     1
 43
1.0
176
     1
 76
     1
176
     1
 77
     6
176
     1
 78
     2
176
     1
 67
     7
176
     1
 79
     5
176
     1
170
     0
176
     1
171
     0
176
     1
290
     0
176
     1
 93
       13
176
     1
 44
0.0
176
     1
173
     0
176
     1
  0
VISUALSTYLE
  5
37
102
{ACAD_REACTORS
330
2A
102
}
330
2A
100
AcDbVisualStyle
  2
Thicken
 70
    13
177
     2
291
     1
 71
     2
176
     1
 72
     2
176
     1
 73
     0
176
     1
 90
        0
176
     1
 40
-0.6
176
     1
 41
-30.0
176
     1
 62
     5
 63
     7
421
 16777215
176
     1
 74
     1
176
     1
 91
        4
176
     1
 64
     7
176
     1
 65
   257
176
     1
 75
     1
176
     1
175
     1
176
     1
 42
1.0
176
     1
 92
       12
176
     1
 66
     7
176
     1
 43
1.0
176
     1
 76
     1
176
     1
 77
     6
176
     1
 78
     2
176
     1
 67
     7
176
     1
 79
     5
176
     1
170
     0
176
     1
171
     0
176
     1
290
     0
176
     1
 93
        1
176
     1
 44
0.0
176
     1
173
     0
176
     1
  0
ENDSEC
  0
EOF
