  0
SECTION
  2
HEADER
  9
$ACADVER
  1
AC1015
  9
$ACADMAINTVER
 70
     6
  9
$DWGCODEPAGE
  3
ANSI_1252
  9
$INSBASE
 10
0.0
 20
0.0
 30
0.0
  9
$EXTMIN
 10
0.0
 20
0.0
 30
0.0
  9
$EXTMAX
 10
420.0
 20
297.0
 30
0.0
  9
$LIMMIN
 10
0.0
 20
0.0
  9
$LIMMAX
 10
420.0
 20
297.0
  9
$ORTHOMODE
 70
     0
  9
$REGENMODE
 70
     1
  9
$FILLMODE
 70
     1
  9
$QTEXTMODE
 70
     0
  9
$MIRRTEXT
 70
     1
  9
$LTSCALE
 40
1.0
  9
$ATTMODE
 70
     1
  9
$TEXTSIZE
 40
3.5
  9
$TRACEWID
 40
1.0
  9
$TEXTSTYLE
  7
STANDARD
  9
$CLAYER
  8
0
  9
$CELTYPE
  6
ByLayer
  9
$CECOLOR
 62
   256
  9
$CELTSCALE
 40
1.0
  9
$DISPSILH
 70
     0
  9
$DIMSCALE
 40
1.0
  9
$DIMASZ
 40
3.302
  9
$DIMEXO
 40
1.0
  9
$DIMDLI
 40
3.75
  9
$DIMRND
 40
0.0
  9
$DIMDLE
 40
0.0
  9
$DIMEXE
 40
1.0
  9
$DIMTP
 40
0.0
  9
$DIMTM
 40
0.0
  9
$DIMTXT
 40
3.5
  9
$DIMCEN
 40
2.5
  9
$DIMTSZ
 40
0.0
  9
$DIMTOL
 70
     0
  9
$DIMLIM
 70
     0
  9
$DIMTIH
 70
     1
  9
$DIMTOH
 70
     1
  9
$DIMSE1
 70
     0
  9
$DIMSE2
 70
     0
  9
$DIMTAD
 70
     1
  9
$DIMZIN
 70
     0
  9
$DIMBLK
  1

  9
$DIMASO
 70
     1
  9
$DIMSHO
 70
     1
  9
$DIMPOST
  1

  9
$DIMAPOST
  1

  9
$DIMALT
 70
     0
  9
$DIMALTD
 70
     3
  9
$DIMALTF
 40
0.0393700787
  9
$DIMLFAC
 40
5.0
  9
$DIMTOFL
 70
     1
  9
$DIMTVP
 40
0.0
  9
$DIMTIX
 70
     0
  9
$DIMSOXD
 70
     0
  9
$DIMSAH
 70
     0
  9
$DIMBLK1
  1

  9
$DIMBLK2
  1

  9
$DIMSTYLE
  2
ISO-25
  9
$DIMCLRD
 70
     0
  9
$DIMCLRE
 70
     0
  9
$DIMCLRT
 70
     0
  9
$DIMTFAC
 40
1.0
  9
$DIMGAP
 40
1.524
  9
$DIMJUST
 70
     0
  9
$DIMSD1
 70
     0
  9
$DIMSD2
 70
     0
  9
$DIMTOLJ
 70
     0
  9
$DIMTZIN
 70
     0
  9
$DIMALTZ
 70
     0
  9
$DIMALTTZ
 70
     0
  9
$DIMUPT
 70
     0
  9
$DIMDEC
 70
     3
  9
$DIMTDEC
 70
     3
  9
$DIMALTU
 70
     2
  9
$DIMALTTD
 70
     3
  9
$DIMTXSTY
  7
STANDARD
  9
$DIMAUNIT
 70
     0
  9
$DIMADEC
 70
     2
  9
$DIMALTRND
 40
0.0
  9
$DIMAZIN
 70
     0
  9
$DIMDSEP
 70
    44
  9
$DIMATFIT
 70
     3
  9
$DIMFRAC
 70
     0
  9
$DIMLDRBLK
  1

  9
$DIMLUNIT
 70
     2
  9
$DIMLWD
 70
    -2
  9
$DIMLWE
 70
    -2
  9
$DIMTMOVE
 70
     0
  9
$LUNITS
 70
     2
  9
$LUPREC
 70
     2
  9
$SKETCHINC
 40
1.0
  9
$FILLETRAD
 40
10.0
  9
$AUNITS
 70
     0
  9
$AUPREC
 70
     2
  9
$MENU
  1
.
  9
$ELEVATION
 40
0.0
  9
$PELEVATION
 40
0.0
  9
$THICKNESS
 40
0.0
  9
$LIMCHECK
 70
     0
  9
$CHAMFERA
 40
10.0
  9
$CHAMFERB
 40
10.0
  9
$CHAMFERC
 40
20.0
  9
$CHAMFERD
 40
0.0
  9
$SKPOLY
 70
     0
  9
$TDCREATE
 40
2456427.765394791
  9
$TDUCREATE
 40
2456427.723728125
  9
$TDUPDATE
 40
2456427.765394803
  9
$TDUUPDATE
 40
2456427.723728137
  9
$TDINDWG
 40
0.0000000116
  9
$TDUSRTIMER
 40
0.0000000116
  9
$USRTIMER
 70
     1
  9
$ANGBASE
 50
0.0
  9
$ANGDIR
 70
     0
  9
$PDMODE
 70
     0
  9
$PDSIZE
 40
-1.0
  9
$PLINEWID
 40
0.0
  9
$SPLFRAME
 70
     0
  9
$SPLINETYPE
 70
     6
  9
$SPLINESEGS
 70
     8
  9
$HANDSEED
  5
488
  9
$SURFTAB1
 70
     6
  9
$SURFTAB2
 70
     6
  9
$SURFTYPE
 70
     6
  9
$SURFU
 70
     6
  9
$SURFV
 70
     6
  9
$UCSBASE
  2

  9
$UCSNAME
  2

  9
$UCSORG
 10
0.0
 20
0.0
 30
0.0
  9
$UCSXDIR
 10
1.0
 20
0.0
 30
0.0
  9
$UCSYDIR
 10
0.0
 20
1.0
 30
0.0
  9
$UCSORTHOREF
  2

  9
$UCSORTHOVIEW
 70
     0
  9
$UCSORGTOP
 10
0.0
 20
0.0
 30
0.0
  9
$UCSORGBOTTOM
 10
0.0
 20
0.0
 30
0.0
  9
$UCSORGLEFT
 10
0.0
 20
0.0
 30
0.0
  9
$UCSORGRIGHT
 10
0.0
 20
0.0
 30
0.0
  9
$UCSORGFRONT
 10
0.0
 20
0.0
 30
0.0
  9
$UCSORGBACK
 10
0.0
 20
0.0
 30
0.0
  9
$PUCSBASE
  2

  9
$PUCSNAME
  2

  9
$PUCSORG
 10
0.0
 20
0.0
 30
0.0
  9
$PUCSXDIR
 10
1.0
 20
0.0
 30
0.0
  9
$PUCSYDIR
 10
0.0
 20
1.0
 30
0.0
  9
$PUCSORTHOREF
  2

  9
$PUCSORTHOVIEW
 70
     0
  9
$PUCSORGTOP
 10
0.0
 20
0.0
 30
0.0
  9
$PUCSORGBOTTOM
 10
0.0
 20
0.0
 30
0.0
  9
$PUCSORGLEFT
 10
0.0
 20
0.0
 30
0.0
  9
$PUCSORGRIGHT
 10
0.0
 20
0.0
 30
0.0
  9
$PUCSORGFRONT
 10
0.0
 20
0.0
 30
0.0
  9
$PUCSORGBACK
 10
0.0
 20
0.0
 30
0.0
  9
$USERI1
 70
     0
  9
$USERI2
 70
     0
  9
$USERI3
 70
     0
  9
$USERI4
 70
     0
  9
$USERI5
 70
     0
  9
$USERR1
 40
0.0
  9
$USERR2
 40
0.0
  9
$USERR3
 40
0.0
  9
$USERR4
 40
0.0
  9
$USERR5
 40
0.0
  9
$WORLDVIEW
 70
     1
  9
$SHADEDGE
 70
     3
  9
$SHADEDIF
 70
    70
  9
$TILEMODE
 70
     1
  9
$MAXACTVP
 70
    64
  9
$PINSBASE
 10
0.0
 20
0.0
 30
0.0
  9
$PLIMCHECK
 70
     0
  9
$PEXTMIN
 10
1.0000000000E+20
 20
1.0000000000E+20
 30
1.0000000000E+20
  9
$PEXTMAX
 10
-1.0000000000E+20
 20
-1.0000000000E+20
 30
-1.0000000000E+20
  9
$PLIMMIN
 10
0.0
 20
0.0
  9
$PLIMMAX
 10
420.0
 20
297.0
  9
$UNITMODE
 70
     0
  9
$VISRETAIN
 70
     1
  9
$PLINEGEN
 70
     0
  9
$PSLTSCALE
 70
     1
  9
$TREEDEPTH
 70
  3020
  9
$CMLSTYLE
  2
Standard
  9
$CMLJUST
 70
     0
  9
$CMLSCALE
 40
20.0
  9
$PROXYGRAPHICS
 70
     1
  9
$MEASUREMENT
 70
     1
  9
$CELWEIGHT
370
    -1
  9
$ENDCAPS
280
     0
  9
$JOINSTYLE
280
     0
  9
$LWDISPLAY
290
     1
  9
$INSUNITS
 70
     4
  9
$HYPERLINKBASE
  1

  9
$STYLESHEET
  1

  9
$XEDIT
290
     1
  9
$CEPSNTYPE
380
     0
  9
$PSTYLEMODE
290
     1
  9
$FINGERPRINTGUID
  2
{32102ED7-CCDE-4AA5-972F-B47D24E95EF5}
  9
$VERSIONGUID
  2
{FAEB1C32-E019-11D5-929B-00C0DF256EC4}
  9
$EXTNAMES
290
     1
  9
$PSVPSCALE
 40
0.0
  9
$OLESTARTUP
290
     0
  0
ENDSEC
  0
SECTION
  2
CLASSES
  0
CLASS
  1
ACDBDICTIONARYWDFLT
  2
AcDbDictionaryWithDefault
  3
ObjectDBX Classes
 90
        0
280
     0
281
     0
  0
CLASS
  1
VISUALSTYLE
  2
AcDbVisualStyle
  3
ObjectDBX Classes
 90
     4095
280
     0
281
     0
  0
CLASS
  1
MATERIAL
  2
AcDbMaterial
  3
ObjectDBX Classes
 90
     1153
280
     0
281
     0
  0
CLASS
  1
ACDBPLACEHOLDER
  2
AcDbPlaceHolder
  3
ObjectDBX Classes
 90
        0
280
     0
281
     0
  0
CLASS
  1
LAYOUT
  2
AcDbLayout
  3
ObjectDBX Classes
 90
        0
280
     0
281
     0
  0
ENDSEC
  0
SECTION
  2
TABLES
  0
TABLE
  2
VPORT
  5
8
330
0
100
AcDbSymbolTable
 70
     1
  0
VPORT
  5
29
330
8
100
AcDbSymbolTableRecord
100
AcDbViewportTableRecord
  2
*Active
 70
     0
 10
0.0
 20
0.0
 11
1.0
 21
1.0
 12
210.0
 22
148.5
 13
0.0
 23
0.0
 14
10.0
 24
10.0
 15
10.0
 25
10.0
 16
0.0
 26
0.0
 36
1.0
 17
0.0
 27
0.0
 37
0.0
 40
297.0
 41
1.4141414141
 42
50.0
 43
0.0
 44
0.0
 50
0.0
 51
0.0
 71
     0
 72
  2000
 73
     1
 74
     3
 75
     0
 76
     0
 77
     0
 78
     0
281
     0
 65
     1
110
0.0
120
0.0
130
0.0
111
1.0
121
0.0
131
0.0
112
0.0
122
1.0
132
0.0
 79
     0
146
0.0
  0
ENDTAB
  0
TABLE
  2
LTYPE
  5
5
330
0
100
AcDbSymbolTable
 70
     8
  0
LTYPE
  5
14
330
5
100
AcDbSymbolTableRecord
100
AcDbLinetypeTableRecord
  2
ByBlock
 70
     0
  3

 72
    65
 73
     0
 40
0.0
  0
LTYPE
  5
15
330
5
100
AcDbSymbolTableRecord
100
AcDbLinetypeTableRecord
  2
ByLayer
 70
     0
  3

 72
    65
 73
     0
 40
0.0
  0
LTYPE
  5
16
330
5
100
AcDbSymbolTableRecord
100
AcDbLinetypeTableRecord
  2
Continuous
 70
     0
  3
Solid line
 72
    65
 73
     0
 40
0.0
  0
LTYPE
  5
3F
330
5
100
AcDbSymbolTableRecord
100
AcDbLinetypeTableRecord
  2
SLD-Solid
 70
     0
  3
SolidWorks Line Style
 72
    65
 73
     0
 40
0.0
  0
LTYPE
  5
40
330
5
100
AcDbSymbolTableRecord
100
AcDbLinetypeTableRecord
  2
SLD-Dashed
 70
     0
  3
SolidWorks Line Style
 72
    65
 73
     2
 40
1.905
 49
1.27
 74
     0
 49
-0.635
 74
     0
  0
LTYPE
  5
41
330
5
100
AcDbSymbolTableRecord
100
AcDbLinetypeTableRecord
  2
SLD-Phantom
 70
     0
  3
SolidWorks Line Style
 72
    65
 73
     6
 40
12.7
 49
6.35
 74
     0
 49
-1.27
 74
     0
 49
1.27
 74
     0
 49
-1.27
 74
     0
 49
1.27
 74
     0
 49
-1.27
 74
     0
  0
LTYPE
  5
42
330
5
100
AcDbSymbolTableRecord
100
AcDbLinetypeTableRecord
  2
SLD-Chain
 70
     0
  3
SolidWorks Line Style
 72
    65
 73
     4
 40
10.16
 49
6.35
 74
     0
 49
-1.27
 74
     0
 49
1.27
 74
     0
 49
-1.27
 74
     0
  0
LTYPE
  5
43
330
5
100
AcDbSymbolTableRecord
100
AcDbLinetypeTableRecord
  2
SLD-Center
 70
     0
  3
SolidWorks Line Style
 72
    65
 73
     4
 40
19.05
 49
15.24
 74
     0
 49
-1.27
 74
     0
 49
1.27
 74
     0
 49
-1.27
 74
     0
  0
LTYPE
  5
44
330
5
100
AcDbSymbolTableRecord
100
AcDbLinetypeTableRecord
  2
SLD-Stitch
 70
     0
  3
SolidWorks Line Style
 72
    65
 73
     2
 40
0.635
 49
0.0
 74
     0
 49
-0.635
 74
     0
  0
LTYPE
  5
45
330
5
100
AcDbSymbolTableRecord
100
AcDbLinetypeTableRecord
  2
SLD-Thin-Thick-Chain
 70
     0
  3
SolidWorks Line Style
 72
    65
 73
     4
 40
10.16
 49
6.35
 74
     0
 49
-1.27
 74
     0
 49
1.27
 74
     0
 49
-1.27
 74
     0
  0
ENDTAB
  0
TABLE
  2
LAYER
  5
2
330
0
100
AcDbSymbolTable
 70
     1
  0
LAYER
  5
10
330
2
100
AcDbSymbolTableRecord
100
AcDbLayerTableRecord
  2
0
 70
     0
 62
     7
  6
Continuous
370
    -3
390
F
  0
ENDTAB
  0
TABLE
  2
STYLE
  5
3
330
0
100
AcDbSymbolTable
 70
     1
  0
STYLE
  5
11
330
3
100
AcDbSymbolTableRecord
100
AcDbTextStyleTableRecord
  2
STANDARD
 70
     0
 40
0.0
 41
1.0
 50
0.0
 71
     0
 42
2.5
  3
GOTHIC_1.TTF
  4

1001
ACAD
1000
CENTURY GOTHIC
1071
       34
  0
ENDTAB
  0
TABLE
  2
VIEW
  5
6
330
0
100
AcDbSymbolTable
 70
     0
  0
ENDTAB
  0
TABLE
  2
UCS
  5
7
330
0
100
AcDbSymbolTable
 70
     0
  0
ENDTAB
  0
TABLE
  2
APPID
  5
9
330
0
100
AcDbSymbolTable
 70
     1
  0
APPID
  5
12
330
9
100
AcDbSymbolTableRecord
100
AcDbRegAppTableRecord
  2
ACAD
 70
     0
  0
ENDTAB
  0
TABLE
  2
DIMSTYLE
  5
A
330
0
100
AcDbSymbolTable
 70
     1
100
AcDbDimStyleTable
  0
DIMSTYLE
105
27
330
A
100
AcDbSymbolTableRecord
100
AcDbDimStyleTableRecord
  2
ISO-25
 70
     0
 41
2.5
 42
0.625
 43
3.75
 44
1.25
 73
     0
 74
     0
 77
     1
 78
     8
140
2.5
141
2.5
143
0.0393700787
147
0.625
171
     3
172
     1
178
     0
271
     2
272
     2
274
     3
278
    44
283
     0
284
     8
340
11
  0
ENDTAB
  0
TABLE
  2
BLOCK_RECORD
  5
1
330
0
100
AcDbSymbolTable
 70
     1
  0
BLOCK_RECORD
  5
1F
330
1
100
AcDbSymbolTableRecord
100
AcDbBlockTableRecord
  2
*Model_Space
340
22
  0
BLOCK_RECORD
  5
1B
330
1
100
AcDbSymbolTableRecord
100
AcDbBlockTableRecord
  2
*Paper_Space
340
1E
  0
BLOCK_RECORD
  5
23
330
1
100
AcDbSymbolTableRecord
100
AcDbBlockTableRecord
  2
*Paper_Space0
340
26
  0
ENDTAB
  0
ENDSEC
  0
SECTION
  2
BLOCKS
  0
BLOCK
  5
20
330
1F
100
AcDbEntity
  8
0
100
AcDbBlockBegin
  2
*Model_Space
 70
     0
 10
0.0
 20
0.0
 30
0.0
  3
*Model_Space
  1

  0
ENDBLK
  5
21
330
1F
100
AcDbEntity
  8
0
100
AcDbBlockEnd
  0
BLOCK
  5
1C
330
1B
100
AcDbEntity
 67
     1
  8
0
100
AcDbBlockBegin
  2
*Paper_Space
 70
     0
 10
0.0
 20
0.0
 30
0.0
  3
*Paper_Space
  1

  0
ENDBLK
  5
1D
330
1B
100
AcDbEntity
 67
     1
  8
0
100
AcDbBlockEnd
  0
BLOCK
  5
24
330
23
100
AcDbEntity
  8
0
100
AcDbBlockBegin
  2
*Paper_Space0
 70
     0
 10
0.0
 20
0.0
 30
0.0
  3
*Paper_Space0
  1

  0
ENDBLK
  5
25
330
23
100
AcDbEntity
  8
0
100
AcDbBlockEnd
  0
ENDSEC
  0
SECTION
  2
ENTITIES
  0
LINE
  5
46
330
1F
100
AcDbEntity
  8
0
  6
SLD-Solid
 62
     7
370
    15
100
AcDbLine
 10
310.9581319838
 20
238.154986172
 30
0.0
 11
310.9581319838
 21
237.6549851587
 31
0.0
  0
LINE
  5
47
330
1F
100
AcDbEntity
  8
0
  6
SLD-Solid
 62
     7
370
    15
100
AcDbLine
 10
321.9581244736
 20
237.6549851587
 30
0.0
 11
321.9581244736
 21
238.154986172
 31
0.0
  0
ARC
  5
48
330
1F
100
AcDbEntity
  8
0
  6
SLD-Solid
 62
     7
370
    15
100
AcDbCircle
 10
18.4581272984
 20
233.1549861368
 30
0.0
 40
0.5
100
AcDbArc
 50
180.0
 51
270.0
  0
ARC
  5
49
330
1F
100
AcDbEntity
  8
0
  6
SLD-Solid
 62
     7
370
    15
100
AcDbCircle
 10
18.4581272984
 20
237.1549861368
 30
0.0
 40
0.5
100
AcDbArc
 50
90.0
 51
180.0
  0
LINE
  5
4A
330
1F
100
AcDbEntity
  8
0
  6
SLD-Solid
 62
     7
370
    15
100
AcDbLine
 10
17.9581267982
 20
237.1549878707
 30
0.0
 11
17.9581267982
 21
233.1549872151
 31
0.0
  0
ARC
  5
4B
330
1F
100
AcDbEntity
  8
0
  6
SLD-Solid
 62
     7
370
    15
100
AcDbCircle
 10
327.4581272984
 20
233.1549861368
 30
0.0
 40
0.5000000000000568
100
AcDbArc
 50
270.0
 51
0.0
  0
ARC
  5
4C
330
1F
100
AcDbEntity
  8
0
  6
SLD-Solid
 62
     7
370
    15
100
AcDbCircle
 10
327.4581272984
 20
237.1549861368
 30
0.0
 40
0.5000000000000568
100
AcDbArc
 50
0.0
 51
90.0
  0
LINE
  5
4D
330
1F
100
AcDbEntity
  8
0
  6
SLD-Solid
 62
     7
370
    15
100
AcDbLine
 10
327.958136633
 20
233.1549872151
 30
0.0
 11
327.958136633
 21
237.1549878707
 31
0.0
  0
LINE
  5
4E
330
1F
100
AcDbEntity
  8
0
  6
SLD-Solid
 62
     7
370
    15
100
AcDbLine
 10
168.4581263214
 20
216.1549862912
 30
0.0
 11
154.9581287652
 21
216.1549862912
 31
0.0
  0
LINE
  5
4F
330
1F
100
AcDbEntity
  8
0
  6
SLD-Solid
 62
     7
370
    15
100
AcDbLine
 10
141.9581247716
 20
216.1549862912
 30
0.0
 11
46.6753689795
 21
216.1549862912
 31
0.0
  0
LINE
  5
50
330
1F
100
AcDbEntity
  8
0
  6
SLD-Solid
 62
     7
370
    15
100
AcDbLine
 10
46.7073021679
 20
183.15498647
 30
0.0
 11
141.9581247716
 21
183.15498647
 31
0.0
  0
LINE
  5
51
330
1F
100
AcDbEntity
  8
0
  6
SLD-Solid
 62
     7
370
    15
100
AcDbLine
 10
154.9581287652
 20
183.15498647
 30
0.0
 11
169.9581293612
 21
183.15498647
 31
0.0
  0
SPLINE
  5
52
330
1F
100
AcDbEntity
  8
0
  6
SLD-Solid
 62
     7
370
    15
100
AcDbSpline
210
0.0
220
0.0
230
1.0
 70
     8
 71
     3
 72
    13
 73
     9
 74
     0
 42
0.00000001
 43
0.00000001
 40
0.0
 40
0.0
 40
0.0
 40
0.0
 40
0.0894728364242599
 40
0.29371951387192
 40
0.5143085772932091
 40
0.7441532784226043
 40
0.9239667201385046
 40
1.0
 40
1.0
 40
1.0
 40
1.0
 10
46.67911103361339
 20
216.0927441408941
 30
0.0
 10
46.60609426606917
 20
216.0866835679744
 30
0.0
 10
46.36639638317325
 20
216.0667880488103
 30
0.0
 10
45.95542336950656
 20
216.2058023758606
 30
0.0
 10
45.51259212603619
 20
216.5185278770081
 30
0.0
 10
45.23314182195774
 20
216.9626847285688
 30
0.0
 10
45.1234974121152
 20
217.353056345776
 30
0.0
 10
45.13714105620263
 20
217.5617882631014
 30
0.0
 10
45.14119571440906
 20
217.6238198271104
 30
0.0
  0
SPLINE
  5
53
330
1F
100
AcDbEntity
  8
0
  6
SLD-Solid
 62
     7
370
    15
100
AcDbSpline
210
0.0
220
0.0
230
1.0
 70
     8
 71
     3
 72
    12
 73
     8
 74
     0
 42
0.00000001
 43
0.00000001
 40
0.0
 40
0.0
 40
0.0
 40
0.0
 40
0.2085065050439318
 40
0.4371332829566745
 40
0.6912442389309993
 40
0.886550721271989
 40
0.9999999999999999
 40
0.9999999999999999
 40
0.9999999999999999
 40
0.9999999999999999
 10
45.21571828418464
 20
181.6542979767629
 30
0.0
 10
45.2282353133678
 20
181.8183491009172
 30
0.0
 10
45.25447722873893
 20
182.1622818068018
 30
0.0
 10
45.53562951199466
 20
182.6454580818289
 30
0.0
 10
45.95406030330232
 20
182.9850322803537
 30
0.0
 10
46.37703194893621
 20
183.1422420497663
 30
0.0
 10
46.6192033984482
 20
183.144422302839
 30
0.0
 10
46.70818692439288
 20
183.145223415465
 30
0.0
  0
ARC
  5
54
330
1F
100
AcDbEntity
  8
0
  6
SLD-Solid
 62
     7
370
    15
100
AcDbCircle
 10
168.4581272984
 20
217.6549861368
 30
0.0
 40
1.5
100
AcDbArc
 50
270.0
 51
0.0
  0
LINE
  5
55
330
1F
100
AcDbEntity
  8
0
  6
SLD-Solid
 62
     7
370
    15
100
AcDbLine
 10
45.2081280052
 20
217.6211320302
 30
0.0
 11
45.2081280052
 21
224.6549867531
 31
0.0
  0
LINE
  5
56
330
1F
100
AcDbEntity
  8
0
  6
SLD-Solid
 62
     7
370
    15
100
AcDbLine
 10
45.2081280052
 20
175.1549870214
 30
0.0
 11
45.2081280052
 21
181.655776917
 31
0.0
  0
ARC
  5
57
330
1F
100
AcDbEntity
  8
0
  6
SLD-Solid
 62
     7
370
    15
100
AcDbCircle
 10
44.7081272984
 20
175.1549861368
 30
0.0
 40
0.5
100
AcDbArc
 50
270.0
 51
0.0
  0
ARC
  5
58
330
1F
100
AcDbEntity
  8
0
  6
SLD-Solid
 62
     7
370
    15
100
AcDbCircle
 10
183.4581272984
 20
214.612092918
 30
0.0
 40
0.5000000000000088
100
AcDbArc
 50
180.0
 51
250.5287793655
  0
ARC
  5
59
330
1F
100
AcDbEntity
  8
0
  6
SLD-Solid
 62
     7
370
    15
100
AcDbCircle
 10
183.4581272984
 20
184.6978793556
 30
0.0
 40
0.5000000000000088
100
AcDbArc
 50
109.4712206345
 51
180.0
  0
ARC
  5
5A
330
1F
100
AcDbEntity
  8
0
  6
SLD-Solid
 62
     7
370
    15
100
AcDbCircle
 10
-47.2918727016
 20
185.4049861368
 30
0.0
 40
0.25
100
AcDbArc
 50
180.0
 51
270.0
  0
ARC
  5
5B
330
1F
100
AcDbEntity
  8
0
  6
SLD-Solid
 62
     7
370
    15
100
AcDbCircle
 10
-47.2918727016
 20
213.9049861368
 30
0.0
 40
0.25
100
AcDbArc
 50
90.0
 51
180.0
  0
LINE
  5
5C
330
1F
100
AcDbEntity
  8
0
  6
SLD-Solid
 62
     7
370
    15
100
AcDbLine
 10
-47.0418708176
 20
214.1549859634
 30
0.0
 11
-47.2918750495
 21
214.1549859634
 31
0.0
  0
LINE
  5
5D
330
1F
100
AcDbEntity
  8
0
  6
SLD-Solid
 62
     7
370
    15
100
AcDbLine
 10
-47.2918750495
 20
185.1549858665
 30
0.0
 11
-47.0418708176
 21
185.1549858665
 31
0.0
  0
ARC
  5
5E
330
1F
100
AcDbEntity
  8
0
  6
SLD-Solid
 62
     7
370
    15
100
AcDbCircle
 10
14.9581272984
 20
174.1549861368
 30
0.0
 40
0.5000000000000441
100
AcDbArc
 50
0.0
 51
66.9788997585
  0
ARC
  5
5F
330
1F
100
AcDbEntity
  8
0
  6
SLD-Solid
 62
     7
370
    15
100
AcDbCircle
 10
43.9581272984
 20
174.1549861368
 30
0.0
 40
0.5000000000000284
100
AcDbArc
 50
90.0
 51
180.0
  0
ARC
  5
60
330
1F
100
AcDbEntity
  8
0
  6
SLD-Solid
 62
     7
370
    15
100
AcDbCircle
 10
14.9581272984
 20
225.1549861368
 30
0.0
 40
0.5
100
AcDbArc
 50
270.0
 51
0.0
  0
ARC
  5
61
330
1F
100
AcDbEntity
  8
0
  6
SLD-Solid
 62
     7
370
    15
100
AcDbCircle
 10
43.9581272984
 20
225.1549861368
 30
0.0
 40
0.5
100
AcDbArc
 50
180.0
 51
270.0
  0
ARC
  5
62
330
1F
100
AcDbEntity
  8
0
  6
SLD-Solid
 62
     7
370
    15
100
AcDbCircle
 10
183.2081272984
 20
213.9049861368
 30
0.0
 40
0.25
100
AcDbArc
 50
0.0
 51
70.5287793655
  0
ARC
  5
63
330
1F
100
AcDbEntity
  8
0
  6
SLD-Solid
 62
     7
370
    15
100
AcDbCircle
 10
183.2081272984
 20
185.4049861368
 30
0.0
 40
0.25
100
AcDbArc
 50
289.4712206345
 51
0.0
  0
ARC
  5
64
330
1F
100
AcDbEntity
  8
0
  6
SLD-Solid
 62
     7
370
    15
100
AcDbCircle
 10
15.9581272984
 20
227.1549861368
 30
0.0
 40
0.5000000000000018
100
AcDbArc
 50
90.0
 51
180.0
  0
ARC
  5
65
330
1F
100
AcDbEntity
  8
0
  6
SLD-Solid
 62
     7
370
    15
100
AcDbCircle
 10
42.9581272984
 20
227.1549861368
 30
0.0
 40
0.5
100
AcDbArc
 50
0.0
 51
90.0
  0
ARC
  5
66
330
1F
100
AcDbEntity
  8
0
  6
SLD-Solid
 62
     7
370
    15
100
AcDbCircle
 10
15.9581272984
 20
172.1549861368
 30
0.0
 40
0.5000000000000018
100
AcDbArc
 50
180.0
 51
270.0
  0
ARC
  5
67
330
1F
100
AcDbEntity
  8
0
  6
SLD-Solid
 62
     7
370
    15
100
AcDbCircle
 10
42.9581272984
 20
172.1549861368
 30
0.0
 40
0.5
100
AcDbArc
 50
270.0
 51
0.0
  0
LINE
  5
68
330
1F
100
AcDbEntity
  8
0
  6
SLD-Solid
 62
     7
370
    15
100
AcDbLine
 10
15.4581254571
 20
227.1549862316
 30
0.0
 11
15.4581254571
 21
225.1549859038
 31
0.0
  0
LINE
  5
69
330
1F
100
AcDbEntity
  8
0
  6
SLD-Solid
 62
     7
370
    15
100
AcDbLine
 10
43.458128184
 20
225.1549859038
 30
0.0
 11
43.458128184
 21
227.1549862316
 31
0.0
  0
LINE
  5
6A
330
1F
100
AcDbEntity
  8
0
  6
SLD-Solid
 62
     7
370
    15
100
AcDbLine
 10
15.4581254571
 20
174.1549868574
 30
0.0
 11
15.4581254571
 21
172.1549865296
 31
0.0
  0
LINE
  5
6B
330
1F
100
AcDbEntity
  8
0
  6
SLD-Solid
 62
     7
370
    15
100
AcDbLine
 10
43.458128184
 20
172.1549865296
 30
0.0
 11
43.458128184
 21
174.1549868574
 31
0.0
  0
ARC
  5
6C
330
1F
100
AcDbEntity
  8
0
  6
SLD-Solid
 62
     7
370
    15
100
AcDbCircle
 10
-40.5418727016
 20
171.1549861368
 30
0.0
 40
0.5
100
AcDbArc
 50
0.0
 51
90.0
  0
LINE
  5
6D
330
1F
100
AcDbEntity
  8
0
  6
SLD-Solid
 62
     7
370
    15
100
AcDbLine
 10
-40.0418715329
 20
232.6549862018
 30
0.0
 11
-40.0418715329
 21
230.654985874
 31
0.0
  0
LINE
  5
6E
330
1F
100
AcDbEntity
  8
0
  6
SLD-Solid
 62
     7
370
    15
100
AcDbLine
 10
-25.0418709368
 20
227.1549862316
 30
0.0
 11
-25.0418709368
 21
227.6549853822
 31
0.0
  0
LINE
  5
6F
330
1F
100
AcDbEntity
  8
0
  6
SLD-Solid
 62
     7
370
    15
100
AcDbLine
 10
-25.0418709368
 20
230.654985874
 30
0.0
 11
-25.0418709368
 21
232.6549862018
 31
0.0
  0
LINE
  5
70
330
1F
100
AcDbEntity
  8
0
  6
SLD-Solid
 62
     7
370
    15
100
AcDbLine
 10
-40.0418715329
 20
171.1549863657
 30
0.0
 11
-40.0418715329
 21
166.6549865594
 31
0.0
  0
LINE
  5
71
330
1F
100
AcDbEntity
  8
0
  6
SLD-Solid
 62
     7
370
    15
100
AcDbLine
 10
-25.0418709368
 20
166.6549865594
 30
0.0
 11
-25.0418709368
 21
172.1549865296
 31
0.0
  0
ARC
  5
72
330
1F
100
AcDbEntity
  8
0
  6
SLD-Solid
 62
     7
370
    15
100
AcDbCircle
 10
-25.5418727016
 20
166.6549861368
 30
0.0
 40
0.5
100
AcDbArc
 50
270.0
 51
0.0
  0
ARC
  5
73
330
1F
100
AcDbEntity
  8
0
  6
SLD-Solid
 62
     7
370
    15
100
AcDbCircle
 10
-39.5418727016
 20
166.6549861368
 30
0.0
 40
0.5
100
AcDbArc
 50
180.0
 51
270.0
  0
ARC
  5
74
330
1F
100
AcDbEntity
  8
0
  6
SLD-Solid
 62
     7
370
    15
100
AcDbCircle
 10
-39.5418727016
 20
232.6549861368
 30
0.0
 40
0.5
100
AcDbArc
 50
90.0
 51
180.0
  0
ARC
  5
75
330
1F
100
AcDbEntity
  8
0
  6
SLD-Solid
 62
     7
370
    15
100
AcDbCircle
 10
-25.5418727016
 20
232.6549861368
 30
0.0
 40
0.5
100
AcDbArc
 50
0.0
 51
90.0
  0
LINE
  5
76
330
1F
100
AcDbEntity
  8
0
  6
SLD-Solid
 62
     7
370
    15
100
AcDbLine
 10
-0.0418724269
 20
172.1549865296
 30
0.0
 11
-0.0418724269
 21
166.6549865594
 31
0.0
  0
LINE
  5
77
330
1F
100
AcDbEntity
  8
0
  6
SLD-Solid
 62
     7
370
    15
100
AcDbLine
 10
14.9581281691
 20
166.6549865594
 30
0.0
 11
14.9581281691
 21
174.1549868574
 31
0.0
  0
ARC
  5
78
330
1F
100
AcDbEntity
  8
0
  6
SLD-Solid
 62
     7
370
    15
100
AcDbCircle
 10
0.4581272984
 20
232.6549861368
 30
0.0
 40
0.5000000000000004
100
AcDbArc
 50
90.0
 51
180.0
  0
ARC
  5
79
330
1F
100
AcDbEntity
  8
0
  6
SLD-Solid
 62
     7
370
    15
100
AcDbCircle
 10
14.4581272984
 20
232.6549861368
 30
0.0
 40
0.5000000000000018
100
AcDbArc
 50
0.0
 51
90.0
  0
ARC
  5
7A
330
1F
100
AcDbEntity
  8
0
  6
SLD-Solid
 62
     7
370
    15
100
AcDbCircle
 10
14.4581272984
 20
166.6549861368
 30
0.0
 40
0.5000000000000018
100
AcDbArc
 50
270.0
 51
0.0
  0
ARC
  5
7B
330
1F
100
AcDbEntity
  8
0
  6
SLD-Solid
 62
     7
370
    15
100
AcDbCircle
 10
0.4581272984
 20
166.6549861368
 30
0.0
 40
0.5000000000000004
100
AcDbArc
 50
180.0
 51
270.0
  0
LINE
  5
7C
330
1F
100
AcDbEntity
  8
0
  6
SLD-Solid
 62
     7
370
    15
100
AcDbLine
 10
-0.0418724269
 20
232.6549862018
 30
0.0
 11
-0.0418724269
 21
230.654985874
 31
0.0
  0
LINE
  5
7D
330
1F
100
AcDbEntity
  8
0
  6
SLD-Solid
 62
     7
370
    15
100
AcDbLine
 10
-0.0418724269
 20
227.6549853822
 30
0.0
 11
-0.0418724269
 21
227.1549862316
 31
0.0
  0
LINE
  5
7E
330
1F
100
AcDbEntity
  8
0
  6
SLD-Solid
 62
     7
370
    15
100
AcDbLine
 10
14.9581281691
 20
224.6549867531
 30
0.0
 11
14.9581281691
 21
227.6549853822
 31
0.0
  0
LINE
  5
7F
330
1F
100
AcDbEntity
  8
0
  6
SLD-Solid
 62
     7
370
    15
100
AcDbLine
 10
14.9581281691
 20
230.654985874
 30
0.0
 11
14.9581281691
 21
232.6549862018
 31
0.0
  0
LINE
  5
80
330
1F
100
AcDbEntity
  8
0
  6
SLD-Solid
 62
     7
370
    15
100
AcDbLine
 10
35.4581287354
 20
166.8418545714
 30
0.0
 11
35.4581287354
 21
171.6549855163
 31
0.0
  0
LINE
  5
81
330
1F
100
AcDbEntity
  8
0
  6
SLD-Solid
 62
     7
370
    15
100
AcDbLine
 10
23.4581267684
 20
171.6549855163
 30
0.0
 11
23.4581267684
 21
166.8418545714
 31
0.0
  0
LINE
  5
82
330
1F
100
AcDbEntity
  8
0
  6
SLD-Solid
 62
     7
370
    15
100
AcDbLine
 10
35.4581287354
 20
230.654985874
 30
0.0
 11
35.4581287354
 21
232.4681181898
 31
0.0
  0
LINE
  5
83
330
1F
100
AcDbEntity
  8
0
  6
SLD-Solid
 62
     7
370
    15
100
AcDbLine
 10
23.4581267684
 20
232.4681181898
 30
0.0
 11
23.4581267684
 21
230.654985874
 31
0.0
  0
LINE
  5
84
330
1F
100
AcDbEntity
  8
0
  6
SLD-Solid
 62
     7
370
    15
100
AcDbLine
 10
23.4581267684
 20
166.8418545714
 30
0.0
 11
23.708127275
 21
166.1549855461
 31
0.0
  0
LINE
  5
85
330
1F
100
AcDbEntity
  8
0
  6
SLD-Solid
 62
     7
370
    15
100
AcDbLine
 10
35.2081282287
 20
166.1549855461
 30
0.0
 11
35.4581287354
 21
166.8418545714
 31
0.0
  0
LINE
  5
86
330
1F
100
AcDbEntity
  8
0
  6
SLD-Solid
 62
     7
370
    15
100
AcDbLine
 10
35.4581287354
 20
232.4681181898
 30
0.0
 11
35.3901123851
 21
232.6549862018
 31
0.0
  0
LINE
  5
87
330
1F
100
AcDbEntity
  8
0
  6
SLD-Solid
 62
     7
370
    15
100
AcDbLine
 10
23.5261431187
 20
232.6549862018
 30
0.0
 11
23.4581267684
 21
232.4681181898
 31
0.0
  0
ARC
  5
88
330
1F
100
AcDbEntity
  8
0
  6
SLD-Solid
 62
     7
370
    15
100
AcDbCircle
 10
-24.5418727016
 20
227.1549861368
 30
0.0
 40
0.5
100
AcDbArc
 50
180.0
 51
270.0
  0
ARC
  5
89
330
1F
100
AcDbEntity
  8
0
  6
SLD-Solid
 62
     7
370
    15
100
AcDbCircle
 10
-24.5418727016
 20
172.1549861368
 30
0.0
 40
0.5
100
AcDbArc
 50
90.0
 51
180.0
  0
ARC
  5
8A
330
1F
100
AcDbEntity
  8
0
  6
SLD-Solid
 62
     7
370
    15
100
AcDbCircle
 10
-0.5418727016
 20
227.1549861368
 30
0.0
 40
0.5000000000000004
100
AcDbArc
 50
270.0
 51
0.0
  0
ARC
  5
8B
330
1F
100
AcDbEntity
  8
0
  6
SLD-Solid
 62
     7
370
    15
100
AcDbCircle
 10
-0.5418727016
 20
172.1549861368
 30
0.0
 40
0.5000000000000004
100
AcDbArc
 50
0.0
 51
90.0
  0
ARC
  5
8C
330
1F
100
AcDbEntity
  8
0
  6
SLD-Solid
 62
     7
370
    15
100
AcDbCircle
 10
15.4581272984
 20
174.1549861368
 30
0.0
 40
0.5000000000000162
100
AcDbArc
 50
121.2410264874
 51
180.0
  0
ARC
  5
8D
330
1F
100
AcDbEntity
  8
0
  6
SLD-Solid
 62
     7
370
    15
100
AcDbCircle
 10
-37.0418727016
 20
233.6549861368
 30
0.0
 40
0.5
100
AcDbArc
 50
270.0
 51
0.0
  0
ARC
  5
8E
330
1F
100
AcDbEntity
  8
0
  6
SLD-Solid
 62
     7
370
    15
100
AcDbCircle
 10
-28.0418727016
 20
233.6549861368
 30
0.0
 40
0.5
100
AcDbArc
 50
180.0
 51
270.0
  0
ARC
  5
8F
330
1F
100
AcDbEntity
  8
0
  6
SLD-Solid
 62
     7
370
    15
100
AcDbCircle
 10
-28.0418727016
 20
165.6549861368
 30
0.0
 40
0.5
100
AcDbArc
 50
90.0
 51
180.0
  0
ARC
  5
90
330
1F
100
AcDbEntity
  8
0
  6
SLD-Solid
 62
     7
370
    15
100
AcDbCircle
 10
-37.0418727016
 20
165.6549861368
 30
0.0
 40
0.5
100
AcDbArc
 50
0.0
 51
90.0
  0
ARC
  5
91
330
1F
100
AcDbEntity
  8
0
  6
SLD-Solid
 62
     7
370
    15
100
AcDbCircle
 10
11.9581272984
 20
165.6549861368
 30
0.0
 40
0.5
100
AcDbArc
 50
90.0
 51
180.0
  0
ARC
  5
92
330
1F
100
AcDbEntity
  8
0
  6
SLD-Solid
 62
     7
370
    15
100
AcDbCircle
 10
2.9581272984
 20
165.6549861368
 30
0.0
 40
0.5000000000000009
100
AcDbArc
 50
0.0
 51
90.0
  0
ARC
  5
93
330
1F
100
AcDbEntity
  8
0
  6
SLD-Solid
 62
     7
370
    15
100
AcDbCircle
 10
2.9581272984
 20
233.6549861368
 30
0.0
 40
0.5000000000000009
100
AcDbArc
 50
270.0
 51
0.0
  0
ARC
  5
94
330
1F
100
AcDbEntity
  8
0
  6
SLD-Solid
 62
     7
370
    15
100
AcDbCircle
 10
11.9581272984
 20
233.6549861368
 30
0.0
 40
0.5
100
AcDbArc
 50
180.0
 51
270.0
  0
LINE
  5
95
330
1F
100
AcDbEntity
  8
0
  6
SLD-Solid
 62
     7
370
    15
100
AcDbLine
 10
90.0209637582
 20
239.9549868396
 30
0.0
 11
66.0209644809
 21
239.9549868396
 31
0.0
  0
LINE
  5
96
330
1F
100
AcDbEntity
  8
0
  6
SLD-Solid
 62
     7
370
    15
100
AcDbLine
 10
90.0209637582
 20
240.1549864998
 30
0.0
 11
90.0209637582
 21
239.9549868396
 31
0.0
  0
LINE
  5
97
330
1F
100
AcDbEntity
  8
0
  6
SLD-Solid
 62
     7
370
    15
100
AcDbLine
 10
66.0209644809
 20
239.9549868396
 30
0.0
 11
66.0209644809
 21
240.1549864998
 31
0.0
  0
LINE
  5
98
330
1F
100
AcDbEntity
  8
0
  6
SLD-Solid
 62
     7
370
    15
100
AcDbLine
 10
324.3162332326
 20
238.154986172
 30
0.0
 11
324.3162332326
 21
240.1549864998
 31
0.0
  0
LINE
  5
99
330
1F
100
AcDbEntity
  8
0
  6
SLD-Solid
 62
     7
370
    15
100
AcDbLine
 10
324.3162332326
 20
238.154986172
 30
0.0
 11
308.6000083237
 21
238.154986172
 31
0.0
  0
LINE
  5
9A
330
1F
100
AcDbEntity
  8
0
  6
SLD-Solid
 62
     7
370
    15
100
AcDbLine
 10
308.6000083237
 20
238.154986172
 30
0.0
 11
308.6000083237
 21
240.1549864998
 31
0.0
  0
LINE
  5
9B
330
1F
100
AcDbEntity
  8
0
  6
SLD-Solid
 62
     7
370
    15
100
AcDbLine
 10
308.6000083237
 20
238.154986172
 30
0.0
 11
302.5432525426
 21
240.1549864998
 31
0.0
  0
LINE
  5
9C
330
1F
100
AcDbEntity
  8
0
  6
SLD-Solid
 62
     7
370
    15
100
AcDbLine
 10
330.3729890137
 20
240.1549864998
 30
0.0
 11
324.3162332326
 21
238.154986172
 31
0.0
  0
LINE
  5
9D
330
1F
100
AcDbEntity
  8
0
  6
SLD-Solid
 62
     7
370
    15
100
AcDbLine
 10
-90.5418695659
 20
259.1549877515
 30
0.0
 11
369.4581387787
 21
259.1549877515
 31
0.0
  0
LINE
  5
9E
330
1F
100
AcDbEntity
  8
0
  6
SLD-Solid
 62
     7
370
    15
100
AcDbLine
 10
369.4581387787
 20
240.1549864998
 30
0.0
 11
369.4581387787
 21
259.1549877515
 31
0.0
  0
LINE
  5
9F
330
1F
100
AcDbEntity
  8
0
  6
SLD-Solid
 62
     7
370
    15
100
AcDbLine
 10
-90.5418695659
 20
240.1549864998
 30
0.0
 11
-90.5418695659
 21
259.1549877515
 31
0.0
  0
LINE
  5
A0
330
1F
100
AcDbEntity
  8
0
  6
SLD-Solid
 62
     7
370
    15
100
AcDbLine
 10
-90.5418695659
 20
240.1549864998
 30
0.0
 11
369.4581387787
 21
240.1549864998
 31
0.0
  0
SPLINE
  5
A1
330
1F
100
AcDbEntity
  8
0
  6
SLD-Solid
 62
     7
370
    15
100
AcDbSpline
210
0.0
220
0.0
230
1.0
 70
     8
 71
     3
 72
    13
 73
     9
 74
     0
 42
0.00000001
 43
0.00000001
 40
0.0
 40
0.0
 40
0.0
 40
0.0
 40
0.0104150406726013
 40
0.1489888135535004
 40
0.3639075004886976
 40
0.5766070647928364
 40
0.7882859455067743
 40
1.0
 40
1.0
 40
1.0
 40
1.0
 10
26.17940662794799
 20
232.6549862017938
 30
0.0
 10
26.1789955979288
 20
232.655000988709
 30
0.0
 10
26.17311574812116
 20
232.6552125178827
 30
0.0
 10
26.15876360445774
 20
232.6670725737329
 30
0.0
 10
26.13787288217995
 20
232.725304095828
 30
0.0
 10
26.1191157445847
 20
232.839117324205
 30
0.0
 10
26.10645974231082
 20
232.9877003551409
 30
0.0
 10
26.10483687821635
 20
233.0992218401769
 30
0.0
 10
26.10402537875861
 20
233.1549872150728
 30
0.0
  0
LINE
  5
A2
330
1F
100
AcDbEntity
  8
0
  6
SLD-Solid
 62
     7
370
    15
100
AcDbLine
 10
26.1794066279
 20
232.6549862018
 30
0.0
 11
18.4581278115
 21
232.6549862018
 31
0.0
  0
LINE
  5
A3
330
1F
100
AcDbEntity
  8
0
  6
SLD-Solid
 62
     7
370
    15
100
AcDbLine
 10
18.4581278115
 20
237.6549851587
 30
0.0
 11
26.1794066279
 21
237.6549851587
 31
0.0
  0
SPLINE
  5
A4
330
1F
100
AcDbEntity
  8
0
  6
SLD-Solid
 62
     7
370
    15
100
AcDbSpline
210
0.0
220
0.0
230
1.0
 70
     8
 71
     3
 72
    13
 73
     9
 74
     0
 42
0.00000001
 43
0.00000001
 40
0.0
 40
0.0
 40
0.0
 40
0.0
 40
0.2117145524953747
 40
0.4233897881016032
 40
0.636089852726046
 40
0.8510108736853469
 40
0.9895849725249399
 40
1.0
 40
1.0
 40
1.0
 40
1.0
 10
26.10402537875861
 20
237.1549878707239
 30
0.0
 10
26.1048368474914
 20
237.2107534075342
 30
0.0
 10
26.10645963426152
 20
237.3222741251006
 30
0.0
 10
26.11911591562919
 20
237.4708539417771
 30
0.0
 10
26.13787299303322
 20
237.5846698668148
 30
0.0
 10
26.15876350190585
 20
237.6428920222818
 30
0.0
 10
26.17311572790726
 20
237.6547785762358
 30
0.0
 10
26.17899559790135
 20
237.6549716611837
 30
0.0
 10
26.17940662794799
 20
237.6549851587125
 30
0.0
  0
LINE
  5
A5
330
1F
100
AcDbEntity
  8
0
  6
SLD-Solid
 62
     7
370
    15
100
AcDbLine
 10
26.1040253788
 20
237.1549878707
 30
0.0
 11
26.1040253788
 21
233.1549872151
 31
0.0
  0
LINE
  5
A6
330
1F
100
AcDbEntity
  8
0
  6
SLD-Solid
 62
     7
370
    15
100
AcDbLine
 10
319.7368530779
 20
232.6549862018
 30
0.0
 11
26.1794066279
 21
232.6549862018
 31
0.0
  0
LINE
  5
A7
330
1F
100
AcDbEntity
  8
0
  6
SLD-Solid
 62
     7
370
    15
100
AcDbLine
 10
26.1040253788
 20
233.1549872151
 30
0.0
 11
319.8122231513
 21
233.1549872151
 31
0.0
  0
SPLINE
  5
A8
330
1F
100
AcDbEntity
  8
0
  6
SLD-Solid
 62
     7
370
    15
100
AcDbSpline
210
0.0
220
0.0
230
1.0
 70
     8
 71
     3
 72
    13
 73
     9
 74
     0
 42
0.00000001
 43
0.00000001
 40
0.0
 40
0.0
 40
0.0
 40
0.0
 40
0.0104129210845908
 40
0.1489889467064167
 40
0.3639078383499711
 40
0.5766065570281818
 40
0.7882859788851426
 40
0.9999999999999999
 40
0.9999999999999999
 40
0.9999999999999999
 40
0.9999999999999999
 10
319.736853077943
 20
232.6549862017938
 30
0.0
 10
319.7372602289163
 20
232.6550009922078
 30
0.0
 10
319.7430857791326
 20
232.6552126146895
 30
0.0
 10
319.7575359411773
 20
232.6670722890023
 30
0.0
 10
319.7783774591269
 20
232.7253037629608
 30
0.0
 10
319.7971353236992
 20
232.8391179041399
 30
0.0
 10
319.8097993206559
 20
232.9877000415993
 30
0.0
 10
319.8114151637114
 20
233.0992217861025
 30
0.0
 10
319.8122231512614
 20
233.1549872150728
 30
0.0
  0
LINE
  5
A9
330
1F
100
AcDbEntity
  8
0
  6
SLD-Solid
 62
     7
370
    15
100
AcDbLine
 10
319.8122231513
 20
237.1549878707
 30
0.0
 11
26.1040253788
 21
237.1549878707
 31
0.0
  0
LINE
  5
AA
330
1F
100
AcDbEntity
  8
0
  6
SLD-Solid
 62
     7
370
    15
100
AcDbLine
 10
26.1794066279
 20
237.6549851587
 30
0.0
 11
319.7368530779
 21
237.6549851587
 31
0.0
  0
SPLINE
  5
AB
330
1F
100
AcDbEntity
  8
0
  6
SLD-Solid
 62
     7
370
    15
100
AcDbSpline
210
0.0
220
0.0
230
1.0
 70
     8
 71
     3
 72
    13
 73
     9
 74
     0
 42
0.00000001
 43
0.00000001
 40
0.0
 40
0.0
 40
0.0
 40
0.0
 40
0.2117145191176275
 40
0.4233902958715504
 40
0.6360895148687788
 40
0.8510107405393702
 40
0.9895870921256468
 40
1.0
 40
1.0
 40
1.0
 40
1.0
 10
319.8122231512614
 20
237.1549878707239
 30
0.0
 10
319.8114151944519
 20
237.210753461626
 30
0.0
 10
319.8097994286835
 20
237.3222744386942
 30
0.0
 10
319.7971351526309
 20
237.4708533616454
 30
0.0
 10
319.7783773482428
 20
237.5846702004261
 30
0.0
 10
319.7575360442182
 20
237.6428923045601
 30
0.0
 10
319.7430857991823
 20
237.6547784830538
 30
0.0
 10
319.7372602289445
 20
237.6549716576753
 30
0.0
 10
319.736853077943
 20
237.6549851587125
 30
0.0
  0
LINE
  5
AC
330
1F
100
AcDbEntity
  8
0
  6
SLD-Solid
 62
     7
370
    15
100
AcDbLine
 10
319.8122231513
 20
237.1549878707
 30
0.0
 11
319.8122231513
 21
233.1549872151
 31
0.0
  0
LINE
  5
AD
330
1F
100
AcDbEntity
  8
0
  6
SLD-Solid
 62
     7
370
    15
100
AcDbLine
 10
327.458113268
 20
232.6549862018
 30
0.0
 11
319.7368530779
 21
232.6549862018
 31
0.0
  0
LINE
  5
AE
330
1F
100
AcDbEntity
  8
0
  6
SLD-Solid
 62
     7
370
    15
100
AcDbLine
 10
319.7368530779
 20
237.6549851587
 30
0.0
 11
327.458113268
 21
237.6549851587
 31
0.0
  0
LINE
  5
AF
330
1F
100
AcDbEntity
  8
0
  6
SLD-Solid
 62
     7
370
    15
100
AcDbLine
 10
156.4581243544
 20
213.6697976356
 30
0.0
 11
156.4581243544
 21
203.6861150963
 31
0.0
  0
LINE
  5
B0
330
1F
100
AcDbEntity
  8
0
  6
SLD-Solid
 62
     7
370
    15
100
AcDbLine
 10
140.4581291824
 20
203.6861150963
 30
0.0
 11
140.4581291824
 21
213.6697976356
 31
0.0
  0
LINE
  5
B1
330
1F
100
AcDbEntity
  8
0
  6
SLD-Solid
 62
     7
370
    15
100
AcDbLine
 10
140.4581291824
 20
203.6861150963
 30
0.0
 11
-4.5418740959
 21
203.6861150963
 31
0.0
  0
LINE
  5
B2
330
1F
100
AcDbEntity
  8
0
  6
SLD-Solid
 62
     7
370
    15
100
AcDbLine
 10
-4.5418740959
 20
213.6697976356
 30
0.0
 11
-4.5418740959
 21
203.6861150963
 31
0.0
  0
LINE
  5
B3
330
1F
100
AcDbEntity
  8
0
  6
SLD-Solid
 62
     7
370
    15
100
AcDbLine
 10
-20.5418692679
 20
203.6861150963
 30
0.0
 11
-20.5418692679
 21
213.6697976356
 31
0.0
  0
LINE
  5
B4
330
1F
100
AcDbEntity
  8
0
  6
SLD-Solid
 62
     7
370
    15
100
AcDbLine
 10
-20.5418692679
 20
203.6861150963
 30
0.0
 11
-32.5418712348
 21
203.6861150963
 31
0.0
  0
LINE
  5
B5
330
1F
100
AcDbEntity
  8
0
  6
SLD-Solid
 62
     7
370
    15
100
AcDbLine
 10
-32.5418712348
 20
213.9444055474
 30
0.0
 11
-32.5418712348
 21
203.6861150963
 31
0.0
  0
SPLINE
  5
B6
330
1F
100
AcDbEntity
  8
0
  6
SLD-Solid
 62
     7
370
    15
100
AcDbSpline
210
0.0
220
0.0
230
1.0
 70
     8
 71
     3
 72
    10
 73
     6
 74
     0
 42
0.00000001
 43
0.00000001
 40
0.0
 40
0.0
 40
0.0
 40
0.0
 40
0.4679434953215058
 40
0.7333751155907442
 40
1.0
 40
1.0
 40
1.0
 40
1.0
 10
-26.58893184370306
 20
214.9508960982868
 30
0.0
 10
-27.41624842626284
 20
214.7057768283858
 30
0.0
 10
-28.71284384949449
 20
214.3216185385614
 30
0.0
 10
-30.81111936189127
 20
213.9968444391936
 30
0.0
 10
-31.96409200475983
 20
213.9619112932809
 30
0.0
 10
-32.54187123483923
 20
213.9444055473515
 30
0.0
  0
SPLINE
  5
B7
330
1F
100
AcDbEntity
  8
0
  6
SLD-Solid
 62
     7
370
    15
100
AcDbSpline
210
0.0
220
0.0
230
1.0
 70
     8
 71
     3
 72
    13
 73
     9
 74
     0
 42
0.00000001
 43
0.00000001
 40
0.0
 40
0.0
 40
0.0
 40
0.0
 40
0.008290665488693
 40
0.2438595984102913
 40
0.3750018518717204
 40
0.5789108239962205
 40
0.7813654584293548
 40
1.0
 40
1.0
 40
1.0
 40
1.0
 10
13.53625191741675
 20
214.9922077050516
 30
0.0
 10
13.50918052683348
 20
214.9832269016591
 30
0.0
 10
12.71290929323368
 20
214.7190677564535
 30
0.0
 10
11.28899700207636
 20
214.3217618817381
 30
0.0
 10
8.888599841020028
 20
213.9579540021691
 30
0.0
 10
6.497425165399084
 20
213.9000442634816
 30
0.0
 10
3.78673643937602
 20
214.2685378736471
 30
0.0
 10
2.284939454439389
 20
214.7176906167131
 30
0.0
 10
1.505188479954928
 20
214.9508960982868
 30
0.0
  0
LINE
  5
B8
330
1F
100
AcDbEntity
  8
0
  6
SLD-Solid
 62
     7
370
    15
100
AcDbLine
 10
46.6753689795
 20
216.1262102863
 30
0.0
 11
46.677660033
 21
216.1282238057
 31
0.0
  0
LINE
  5
B9
330
1F
100
AcDbEntity
  8
0
  6
SLD-Solid
 62
     7
370
    15
100
AcDbLine
 10
168.4581263214
 20
203.6861150963
 30
0.0
 11
156.4581243544
 21
203.6861150963
 31
0.0
  0
LINE
  5
BA
330
1F
100
AcDbEntity
  8
0
  6
SLD-Solid
 62
     7
370
    15
100
AcDbLine
 10
156.4581243544
 20
195.6238571992
 30
0.0
 11
156.4581243544
 21
185.6401751256
 31
0.0
  0
LINE
  5
BB
330
1F
100
AcDbEntity
  8
0
  6
SLD-Solid
 62
     7
370
    15
100
AcDbLine
 10
169.9581293612
 20
195.6238571992
 30
0.0
 11
156.4581243544
 21
195.6238571992
 31
0.0
  0
SPLINE
  5
BC
330
1F
100
AcDbEntity
  8
0
  6
SLD-Solid
 62
     7
370
    15
100
AcDbSpline
210
0.0
220
0.0
230
1.0
 70
     8
 71
     3
 72
    13
 73
     9
 74
     0
 42
0.00000001
 43
0.00000001
 40
0.0
 40
0.0
 40
0.0
 40
0.0
 40
0.0336943892375071
 40
0.2724393064269505
 40
0.506336845358455
 40
0.5750213329282823
 40
0.7957554143171282
 40
1.0
 40
1.0
 40
1.0
 40
1.0
 10
1.505188479954928
 20
184.3590766629287
 30
0.0
 10
1.617921591649724
 20
184.3953698794108
 30
0.0
 10
2.529436281676873
 20
184.6888222597665
 30
0.0
 10
4.511986051509237
 20
185.1972506040999
 30
0.0
 10
6.908286494082843
 20
185.3998018378555
 30
0.0
 10
9.195662853186903
 20
185.3150973880259
 30
0.0
 10
11.33510276160898
 20
184.9956065393005
 30
0.0
 10
12.82176338669885
 20
184.5377903913428
 30
0.0
 10
13.53625191741675
 20
184.3177641248413
 30
0.0
  0
SPLINE
  5
BD
330
1F
100
AcDbEntity
  8
0
  6
SLD-Solid
 62
     7
370
    15
100
AcDbSpline
210
0.0
220
0.0
230
1.0
 70
     8
 71
     3
 72
    11
 73
     7
 74
     0
 42
0.00000001
 43
0.00000001
 40
0.0
 40
0.0
 40
0.0
 40
0.0
 40
0.0172378085026638
 40
0.4322988760570424
 40
0.560395515673122
 40
1.0
 40
1.0
 40
1.0
 40
1.0
 10
-32.54187123483923
 20
185.365567213864
 30
0.0
 10
-32.5045434775064
 20
185.3654885121811
 30
0.0
 10
-31.56841824220036
 20
185.3635147897658
 30
0.0
 10
-30.34968313644557
 20
185.2527676755376
 30
0.0
 10
-28.35750103943582
 20
184.8904690300969
 30
0.0
 10
-27.36076408895574
 20
184.5909848997402
 30
0.0
 10
-26.58893184370306
 20
184.3590766629287
 30
0.0
  0
LINE
  5
BE
330
1F
100
AcDbEntity
  8
0
  6
SLD-Solid
 62
     7
370
    15
100
AcDbLine
 10
-32.5418712348
 20
195.6238571992
 30
0.0
 11
-32.5418712348
 21
185.3655672139
 31
0.0
  0
LINE
  5
BF
330
1F
100
AcDbEntity
  8
0
  6
SLD-Solid
 62
     7
370
    15
100
AcDbLine
 10
-20.5418692679
 20
195.6238571992
 30
0.0
 11
-32.5418712348
 21
195.6238571992
 31
0.0
  0
LINE
  5
C0
330
1F
100
AcDbEntity
  8
0
  6
SLD-Solid
 62
     7
370
    15
100
AcDbLine
 10
-20.5418692679
 20
185.6401751256
 30
0.0
 11
-20.5418692679
 21
195.6238571992
 31
0.0
  0
LINE
  5
C1
330
1F
100
AcDbEntity
  8
0
  6
SLD-Solid
 62
     7
370
    15
100
AcDbLine
 10
-4.5418740959
 20
195.6238571992
 30
0.0
 11
-4.5418740959
 21
185.6401751256
 31
0.0
  0
LINE
  5
C2
330
1F
100
AcDbEntity
  8
0
  6
SLD-Solid
 62
     7
370
    15
100
AcDbLine
 10
140.4581291824
 20
195.6238571992
 30
0.0
 11
-4.5418740959
 21
195.6238571992
 31
0.0
  0
LINE
  5
C3
330
1F
100
AcDbEntity
  8
0
  6
SLD-Solid
 62
     7
370
    15
100
AcDbLine
 10
140.4581291824
 20
185.6401751256
 30
0.0
 11
140.4581291824
 21
195.6238571992
 31
0.0
  0
LINE
  5
C4
330
1F
100
AcDbEntity
  8
0
  6
SLD-Solid
 62
     7
370
    15
100
AcDbLine
 10
45.1773440688
 20
217.6226780256
 30
0.0
 11
45.1758688539
 21
217.6211320302
 31
0.0
  0
ARC
  5
C5
330
1F
100
AcDbEntity
  8
0
  6
SLD-Solid
 62
     7
370
    15
100
AcDbCircle
 10
13.2699222987
 20
216.6412146168
 30
0.0
 40
1.670375784317624
100
AcDbArc
 50
279.1745637055
 51
351.228847058
  0
ARC
  5
C6
330
1F
100
AcDbEntity
  8
0
  6
SLD-Solid
 62
     7
370
    15
100
AcDbCircle
 10
13.2699221805
 20
182.6687569256
 30
0.0
 40
1.670376086952263
100
AcDbArc
 50
8.771193641
 51
80.8254338654
  0
CIRCLE
  5
C7
330
1F
100
AcDbEntity
  8
0
  6
SLD-Solid
 62
     7
370
    15
100
AcDbCircle
 10
148.4581272984
 20
177.6549861368
 30
0.0
 40
4.0
  0
CIRCLE
  5
C8
330
1F
100
AcDbEntity
  8
0
  6
SLD-Solid
 62
     7
370
    15
100
AcDbCircle
 10
-12.5418727016
 20
177.6549861368
 30
0.0
 40
4.0
  0
CIRCLE
  5
C9
330
1F
100
AcDbEntity
  8
0
  6
SLD-Solid
 62
     7
370
    15
100
AcDbCircle
 10
-12.5418727016
 20
221.6549861368
 30
0.0
 40
4.0
  0
SPLINE
  5
CA
330
1F
100
AcDbEntity
  8
0
  6
SLD-Solid
 62
     7
370
    15
100
AcDbSpline
210
0.0
220
0.0
230
1.0
 70
     8
 71
     3
 72
    12
 73
     8
 74
     0
 42
0.00000001
 43
0.00000001
 40
0.0
 40
0.0
 40
0.0
 40
0.0
 40
0.0334570591801897
 40
0.0756371946177982
 40
0.1579708007008044
 40
0.4520861223917876
 40
1.0
 40
1.0
 40
1.0
 40
1.0
 10
140.4581291823933
 20
195.6238571992227
 30
0.0
 10
140.5103197918899
 20
195.6168621803194
 30
0.0
 10
140.6283083833694
 20
195.6010483694494
 30
0.0
 10
140.8337965886297
 20
195.4526439857147
 30
0.0
 10
141.2321377187095
 20
194.9346311971022
 30
0.0
 10
141.7562637125129
 20
193.5650046297913
 30
0.0
 10
141.8785513866043
 20
192.2587581363248
 30
0.0
 10
141.9581247716496
 20
191.4087750455448
 30
0.0
  0
SPLINE
  5
CB
330
1F
100
AcDbEntity
  8
0
  6
SLD-Solid
 62
     7
370
    15
100
AcDbSpline
210
0.0
220
0.0
230
1.0
 70
     8
 71
     3
 72
    14
 73
    10
 74
     0
 42
0.00000001
 43
0.00000001
 40
0.0
 40
0.0
 40
0.0
 40
0.0
 40
0.6033725650012826
 40
0.7307357153026905
 40
0.8467991390815701
 40
0.9165335760575215
 40
0.9566609523440294
 40
0.9867390254306514
 40
1.0
 40
1.0
 40
1.0
 40
1.0
 10
-6.041869685118467
 20
191.4087750455448
 30
0.0
 10
-5.956091410235814
 20
192.3523371162646
 30
0.0
 10
-5.852206592314585
 20
193.4950713814172
 30
0.0
 10
-5.370475040482936
 20
194.7245517449146
 30
0.0
 10
-5.145643772294123
 20
195.1579435531127
 30
0.0
 10
-4.927993422194965
 20
195.437852100435
 30
0.0
 10
-4.754105663166003
 20
195.5718140848598
 30
0.0
 10
-4.629967929041968
 20
195.6193036299279
 30
0.0
 10
-4.56251384184786
 20
195.6227903309735
 30
0.0
 10
-4.54187409586218
 20
195.6238571992227
 30
0.0
  0
LINE
  5
CC
330
1F
100
AcDbEntity
  8
0
  6
SLD-Solid
 62
     7
370
    15
100
AcDbLine
 10
-6.0418696851
 20
172.1549865296
 30
0.0
 11
-6.0418696851
 21
191.4087750455
 31
0.0
  0
LINE
  5
CD
330
1F
100
AcDbEntity
  8
0
  6
SLD-Solid
 62
     7
370
    15
100
AcDbLine
 10
-19.0418736786
 20
172.1549865296
 30
0.0
 11
-6.0418696851
 21
172.1549865296
 31
0.0
  0
LINE
  5
CE
330
1F
100
AcDbEntity
  8
0
  6
SLD-Solid
 62
     7
370
    15
100
AcDbLine
 10
-19.0418736786
 20
191.4087750455
 30
0.0
 11
-19.0418736786
 21
172.1549865296
 31
0.0
  0
SPLINE
  5
CF
330
1F
100
AcDbEntity
  8
0
  6
SLD-Solid
 62
     7
370
    15
100
AcDbSpline
210
0.0
220
0.0
230
1.0
 70
     8
 71
     3
 72
    12
 73
     8
 74
     0
 42
0.00000001
 43
0.00000001
 40
0.0
 40
0.0
 40
0.0
 40
0.0
 40
0.0334570591801897
 40
0.0756371946177982
 40
0.1579708007008044
 40
0.4520861223917876
 40
1.0
 40
1.0
 40
1.0
 40
1.0
 10
-20.54186926788595
 20
195.6238571992227
 30
0.0
 10
-20.48967865838936
 20
195.6168621803194
 30
0.0
 10
-20.37169006690989
 20
195.6010483694494
 30
0.0
 10
-20.16620186164944
 20
195.4526439857147
 30
0.0
 10
-19.76786073156969
 20
194.9346311971022
 30
0.0
 10
-19.24373473776628
 20
193.5650046297913
 30
0.0
 10
-19.12144706367483
 20
192.2587581363248
 30
0.0
 10
-19.04187367862967
 20
191.4087750455448
 30
0.0
  0
SPLINE
  5
D0
330
1F
100
AcDbEntity
  8
0
  6
SLD-Solid
 62
     7
370
    15
100
AcDbSpline
210
0.0
220
0.0
230
1.0
 70
     8
 71
     3
 72
    14
 73
    10
 74
     0
 42
0.00000001
 43
0.00000001
 40
0.0
 40
0.0
 40
0.0
 40
0.0
 40
0.6033718955881203
 40
0.7307354902457487
 40
0.8467980195635733
 40
0.9165323791724835
 40
0.9566610004266414
 40
0.9867390401430719
 40
1.0
 40
1.0
 40
1.0
 40
1.0
 10
-34.04187427467612
 20
191.4087750455448
 30
0.0
 10
-33.95610283124781
 20
192.3523398454467
 30
0.0
 10
-33.85222620354783
 20
193.4950783317378
 30
0.0
 10
-33.3704692180076
 20
194.7245482718523
 30
0.0
 10
-33.14564823055663
 20
195.1579440225541
 30
0.0
 10
-32.9279982126972
 20
195.4378558525329
 30
0.0
 10
-32.75410400160161
 20
195.5718123373459
 30
0.0
 10
-32.62996512796332
 20
195.6193037145277
 30
0.0
 10
-32.56251099486943
 20
195.6227903507946
 30
0.0
 10
-32.54187123483923
 20
195.6238571992227
 30
0.0
  0
LINE
  5
D1
330
1F
100
AcDbEntity
  8
0
  6
SLD-Solid
 62
     7
370
    15
100
AcDbLine
 10
-34.0418742747
 20
172.1549865296
 30
0.0
 11
-34.0418742747
 21
191.4087750455
 31
0.0
  0
LINE
  5
D2
330
1F
100
AcDbEntity
  8
0
  6
SLD-Solid
 62
     7
370
    15
100
AcDbLine
 10
-47.0418708176
 20
172.1549865296
 30
0.0
 11
-34.0418742747
 21
172.1549865296
 31
0.0
  0
LINE
  5
D3
330
1F
100
AcDbEntity
  8
0
  6
SLD-Solid
 62
     7
370
    15
100
AcDbLine
 10
-47.0418708176
 20
172.1549865296
 30
0.0
 11
-47.0418708176
 21
227.1549862316
 31
0.0
  0
LINE
  5
D4
330
1F
100
AcDbEntity
  8
0
  6
SLD-Solid
 62
     7
370
    15
100
AcDbLine
 10
-34.0418742747
 20
227.1549862316
 30
0.0
 11
-47.0418708176
 21
227.1549862316
 31
0.0
  0
LINE
  5
D5
330
1F
100
AcDbEntity
  8
0
  6
SLD-Solid
 62
     7
370
    15
100
AcDbLine
 10
-34.0418742747
 20
207.9011977157
 30
0.0
 11
-34.0418742747
 21
227.1549862316
 31
0.0
  0
SPLINE
  5
D6
330
1F
100
AcDbEntity
  8
0
  6
SLD-Solid
 62
     7
370
    15
100
AcDbSpline
210
0.0
220
0.0
230
1.0
 70
     8
 71
     3
 72
    12
 73
     8
 74
     0
 42
0.00000001
 43
0.00000001
 40
0.0
 40
0.0
 40
0.0
 40
0.0
 40
0.033457023321549
 40
0.0756384328068959
 40
0.1579719506463064
 40
0.4520863676015341
 40
1.0
 40
1.0
 40
1.0
 40
1.0
 10
-32.54187123483923
 20
203.6861150963315
 30
0.0
 10
-32.5940616542641
 20
203.6931104366984
 30
0.0
 10
-32.71205187398238
 20
203.7089252501447
 30
0.0
 10
-32.91754627066035
 20
203.8573241090882
 30
0.0
 10
-33.31588535710831
 20
204.3753429630828
 30
0.0
 10
-33.84000154047259
 20
205.7449691563511
 30
0.0
 10
-33.96229624307104
 20
207.0512145561407
 30
0.0
 10
-34.04187427467612
 20
207.9011977156707
 30
0.0
  0
SPLINE
  5
D7
330
1F
100
AcDbEntity
  8
0
  6
SLD-Solid
 62
     7
370
    15
100
AcDbSpline
210
0.0
220
0.0
230
1.0
 70
     8
 71
     3
 72
    14
 73
    10
 74
     0
 42
0.00000001
 43
0.00000001
 40
0.0
 40
0.0
 40
0.0
 40
0.0
 40
0.6033727274728811
 40
0.7307358912927634
 40
0.8467993711967421
 40
0.9165338155743885
 40
0.9566624561521759
 40
0.986739024023116
 40
1.0
 40
1.0
 40
1.0
 40
1.0
 10
-19.04187367862967
 20
207.9011977156707
 30
0.0
 10
-19.12765214309539
 20
206.9576358451348
 30
0.0
 10
-19.23153718766416
 20
205.8149018549133
 30
0.0
 10
-19.7132680309236
 20
204.5854199514909
 30
0.0
 10
-19.93810058746684
 20
204.1520301937781
 30
0.0
 10
-20.15574929049155
 20
203.8721155046954
 30
0.0
 10
-20.32964248964578
 20
203.7381624390321
 30
0.0
 10
-20.45377759277261
 20
203.6906680510828
 30
0.0
 10
-20.52122947746285
 20
203.6871818490269
 30
0.0
 10
-20.54186926788598
 20
203.6861150963315
 30
0.0
  0
LINE
  5
D8
330
1F
100
AcDbEntity
  8
0
  6
SLD-Solid
 62
     7
370
    15
100
AcDbLine
 10
-19.0418736786
 20
227.1549862316
 30
0.0
 11
-19.0418736786
 21
207.9011977157
 31
0.0
  0
LINE
  5
D9
330
1F
100
AcDbEntity
  8
0
  6
SLD-Solid
 62
     7
370
    15
100
AcDbLine
 10
-6.0418696851
 20
227.1549862316
 30
0.0
 11
-19.0418736786
 21
227.1549862316
 31
0.0
  0
LINE
  5
DA
330
1F
100
AcDbEntity
  8
0
  6
SLD-Solid
 62
     7
370
    15
100
AcDbLine
 10
-6.0418696851
 20
207.9011977157
 30
0.0
 11
-6.0418696851
 21
227.1549862316
 31
0.0
  0
SPLINE
  5
DB
330
1F
100
AcDbEntity
  8
0
  6
SLD-Solid
 62
     7
370
    15
100
AcDbSpline
210
0.0
220
0.0
230
1.0
 70
     8
 71
     3
 72
    12
 73
     8
 74
     0
 42
0.00000001
 43
0.00000001
 40
0.0
 40
0.0
 40
0.0
 40
0.0
 40
0.0334570552451661
 40
0.0756371588238956
 40
0.1579707552233046
 40
0.4520860881364988
 40
1.0
 40
1.0
 40
1.0
 40
1.0
 10
-4.54187409586218
 20
203.6861150963315
 30
0.0
 10
-4.594064698290351
 20
203.6931101258475
 30
0.0
 10
-4.71205323183116
 20
203.7089239550863
 30
0.0
 10
-4.917541609637144
 20
203.8573279827831
 30
0.0
 10
-5.315882572769187
 20
204.3753410880773
 30
0.0
 10
-5.840008681439912
 20
205.7449676513999
 30
0.0
 10
-5.962296321524535
 20
207.0512144312837
 30
0.0
 10
-6.041869685118467
 20
207.9011977156707
 30
0.0
  0
SPLINE
  5
DC
330
1F
100
AcDbEntity
  8
0
  6
SLD-Solid
 62
     7
370
    15
100
AcDbSpline
210
0.0
220
0.0
230
1.0
 70
     8
 71
     3
 72
    14
 73
    10
 74
     0
 42
0.00000001
 43
0.00000001
 40
0.0
 40
0.0
 40
0.0
 40
0.0
 40
0.6033725953833824
 40
0.7307357313211024
 40
0.8467991858166292
 40
0.9165336149281103
 40
0.9566609572316956
 40
0.98673902692619
 40
1.0
 40
1.0
 40
1.0
 40
1.0
 10
141.9581247716496
 20
207.9011977156707
 30
0.0
 10
141.8723465394294
 20
206.9576354827026
 30
0.0
 10
141.7684617761298
 20
205.8149010535447
 30
0.0
 10
141.2867300745777
 20
204.585420489536
 30
0.0
 10
141.0618988747169
 20
204.1520286146444
 30
0.0
 10
140.8442486140455
 20
203.8721198925767
 30
0.0
 10
140.6703606800246
 20
203.7381582293651
 30
0.0
 10
140.546223017731
 20
203.6906686626697
 30
0.0
 10
140.4787689288845
 20
203.687181963888
 30
0.0
 10
140.4581291823933
 20
203.6861150963315
 30
0.0
  0
LINE
  5
DD
330
1F
100
AcDbEntity
  8
0
  6
SLD-Solid
 62
     7
370
    15
100
AcDbLine
 10
141.9581247716
 20
207.9011977157
 30
0.0
 11
141.9581247716
 21
227.1549862316
 31
0.0
  0
LINE
  5
DE
330
1F
100
AcDbEntity
  8
0
  6
SLD-Solid
 62
     7
370
    15
100
AcDbLine
 10
154.9581287652
 20
227.1549862316
 30
0.0
 11
141.9581247716
 21
227.1549862316
 31
0.0
  0
LINE
  5
DF
330
1F
100
AcDbEntity
  8
0
  6
SLD-Solid
 62
     7
370
    15
100
AcDbLine
 10
154.9581287652
 20
227.1549862316
 30
0.0
 11
154.9581287652
 21
207.9011977157
 31
0.0
  0
SPLINE
  5
E0
330
1F
100
AcDbEntity
  8
0
  6
SLD-Solid
 62
     7
370
    15
100
AcDbSpline
210
0.0
220
0.0
230
1.0
 70
     8
 71
     3
 72
    12
 73
     8
 74
     0
 42
0.00000001
 43
0.00000001
 40
0.0
 40
0.0
 40
0.0
 40
0.0
 40
0.0334570552451661
 40
0.0756371588238956
 40
0.1579707552233046
 40
0.4520860881364988
 40
1.0
 40
1.0
 40
1.0
 40
1.0
 10
156.458124354417
 20
203.6861150963315
 30
0.0
 10
156.4059337519889
 20
203.6931101258475
 30
0.0
 10
156.2879452184481
 20
203.7089239550863
 30
0.0
 10
156.082456840642
 20
203.8573279827831
 30
0.0
 10
155.6841158775102
 20
204.3753410880773
 30
0.0
 10
155.1599897688392
 20
205.7449676513999
 30
0.0
 10
155.0377021287546
 20
207.0512144312837
 30
0.0
 10
154.9581287651608
 20
207.9011977156707
 30
0.0
  0
SPLINE
  5
E1
330
1F
100
AcDbEntity
  8
0
  6
SLD-Solid
 62
     7
370
    15
100
AcDbSpline
210
0.0
220
0.0
230
1.0
 70
     8
 71
     3
 72
    14
 73
    10
 74
     0
 42
0.00000001
 43
0.00000001
 40
0.0
 40
0.0
 40
0.0
 40
0.0
 40
0.6033719259695164
 40
0.7307355062632652
 40
0.8467980662979493
 40
0.9165324180423207
 40
0.9566610053143503
 40
0.9867390416386236
 40
1.0
 40
1.0
 40
1.0
 40
1.0
 10
169.9581293612072
 20
207.9011977156707
 30
0.0
 10
169.8723579604427
 20
206.9576327535206
 30
0.0
 10
169.7684813873658
 20
205.8148941032244
 30
0.0
 10
169.2867242521009
 20
204.5854239625974
 30
0.0
 10
169.0619033329819
 20
204.1520281452036
 30
0.0
 10
168.8442534045431
 20
203.8721161404775
 30
0.0
 10
168.6703590184629
 20
203.7381599768798
 30
0.0
 10
168.5462202166522
 20
203.6906685780699
 30
0.0
 10
168.478766081906
 20
203.6871819440669
 30
0.0
 10
168.4581263213703
 20
203.6861150963315
 30
0.0
  0
LINE
  5
E2
330
1F
100
AcDbEntity
  8
0
  6
SLD-Solid
 62
     7
370
    15
100
AcDbLine
 10
169.9581293612
 20
207.9011977157
 30
0.0
 11
169.9581293612
 21
227.1549862316
 31
0.0
  0
LINE
  5
E3
330
1F
100
AcDbEntity
  8
0
  6
SLD-Solid
 62
     7
370
    15
100
AcDbLine
 10
182.4581248909
 20
227.1549862316
 30
0.0
 11
169.9581293612
 21
227.1549862316
 31
0.0
  0
LINE
  5
E4
330
1F
100
AcDbEntity
  8
0
  6
SLD-Solid
 62
     7
370
    15
100
AcDbLine
 10
182.4581248909
 20
172.1549865296
 30
0.0
 11
182.4581248909
 21
227.1549862316
 31
0.0
  0
LINE
  5
E5
330
1F
100
AcDbEntity
  8
0
  6
SLD-Solid
 62
     7
370
    15
100
AcDbLine
 10
169.9581293612
 20
172.1549865296
 30
0.0
 11
182.4581248909
 21
172.1549865296
 31
0.0
  0
LINE
  5
E6
330
1F
100
AcDbEntity
  8
0
  6
SLD-Solid
 62
     7
370
    15
100
AcDbLine
 10
169.9581293612
 20
172.1549865296
 30
0.0
 11
169.9581293612
 21
195.6238571992
 31
0.0
  0
SPLINE
  5
E7
330
1F
100
AcDbEntity
  8
0
  6
SLD-Solid
 62
     7
370
    15
100
AcDbSpline
210
0.0
220
0.0
230
1.0
 70
     8
 71
     3
 72
    14
 73
    10
 74
     0
 42
0.00000001
 43
0.00000001
 40
0.0
 40
0.0
 40
0.0
 40
0.0
 40
0.6033726970913607
 40
0.730735875275058
 40
0.8467993244624954
 40
0.9165337767046815
 40
0.9566624512646367
 40
0.9867390225275642
 40
1.0
 40
1.0
 40
1.0
 40
1.0
 10
154.9581287651608
 20
191.4087750455448
 30
0.0
 10
155.0439072722894
 20
192.3523367538325
 30
0.0
 10
155.1477923714804
 20
193.4950705800488
 30
0.0
 10
155.6295230650177
 20
194.7245522829597
 30
0.0
 10
155.8543556898914
 20
195.1579419739797
 30
0.0
 10
156.0720044823376
 20
195.4378564883148
 30
0.0
 10
156.2458975065089
 20
195.5718098751906
 30
0.0
 10
156.3700326814615
 20
195.6193042415149
 30
0.0
 10
156.4374845644995
 20
195.6227904458346
 30
0.0
 10
156.458124354417
 20
195.6238571992227
 30
0.0
  0
LINE
  5
E8
330
1F
100
AcDbEntity
  8
0
  6
SLD-Solid
 62
     7
370
    15
100
AcDbLine
 10
154.9581287652
 20
191.4087750455
 30
0.0
 11
154.9581287652
 21
172.1549865296
 31
0.0
  0
LINE
  5
E9
330
1F
100
AcDbEntity
  8
0
  6
SLD-Solid
 62
     7
370
    15
100
AcDbLine
 10
141.9581247716
 20
172.1549865296
 30
0.0
 11
154.9581287652
 21
172.1549865296
 31
0.0
  0
LINE
  5
EA
330
1F
100
AcDbEntity
  8
0
  6
SLD-Solid
 62
     7
370
    15
100
AcDbLine
 10
141.9581247716
 20
172.1549865296
 30
0.0
 11
141.9581247716
 21
191.4087750455
 31
0.0
  0
CIRCLE
  5
EB
330
1F
100
AcDbEntity
  8
0
  6
SLD-Solid
 62
     7
370
    15
100
AcDbCircle
 10
148.4581272984
 20
221.6549861368
 30
0.0
 40
4.0
  0
LINE
  5
EC
330
1F
100
AcDbEntity
  8
0
  6
SLD-Solid
 62
     7
370
    15
100
AcDbLine
 10
-34.541875288
 20
171.6549855163
 30
0.0
 11
-46.5418698043
 21
171.6549855163
 31
0.0
  0
ARC
  5
ED
330
1F
100
AcDbEntity
  8
0
  6
SLD-Solid
 62
     7
370
    15
100
AcDbCircle
 10
-46.5418727016
 20
172.1549861368
 30
0.0
 40
0.5
100
AcDbArc
 50
180.0
 51
270.0
  0
ARC
  5
EE
330
1F
100
AcDbEntity
  8
0
  6
SLD-Solid
 62
     7
370
    15
100
AcDbCircle
 10
-34.5418727016
 20
172.1549861368
 30
0.0
 40
0.5
100
AcDbArc
 50
270.0
 51
0.0
  0
ARC
  5
EF
330
1F
100
AcDbEntity
  8
0
  6
SLD-Solid
 62
     7
370
    15
100
AcDbCircle
 10
-34.5418727016
 20
227.1549861368
 30
0.0
 40
0.5
100
AcDbArc
 50
0.0
 51
90.0
  0
ARC
  5
F0
330
1F
100
AcDbEntity
  8
0
  6
SLD-Solid
 62
     7
370
    15
100
AcDbCircle
 10
-46.5418727016
 20
227.1549861368
 30
0.0
 40
0.5
100
AcDbArc
 50
90.0
 51
180.0
  0
ARC
  5
F1
330
1F
100
AcDbEntity
  8
0
  6
SLD-Solid
 62
     7
370
    15
100
AcDbCircle
 10
-32.6356258329
 20
183.9582779867
 30
0.0
 40
1.410408768267001
100
AcDbArc
 50
86.1885470285
 51
175.5981458446
  0
ARC
  5
F2
330
1F
100
AcDbEntity
  8
0
  6
SLD-Solid
 62
     7
370
    15
100
AcDbCircle
 10
-32.6356257878
 20
215.3516949042
 30
0.0
 40
1.410408894682724
100
AcDbArc
 50
184.4018969901
 51
273.8114507927
  0
SPLINE
  5
F3
330
1F
100
AcDbEntity
  8
0
  6
SLD-Solid
 62
     7
370
    15
100
AcDbSpline
210
0.0
220
0.0
230
1.0
 70
     8
 71
     3
 72
    13
 73
     9
 74
     0
 42
0.00000001
 43
0.00000001
 40
0.0
 40
0.0
 40
0.0
 40
0.0
 40
0.1410589673025161
 40
0.2815039366669507
 40
0.4793935340136505
 40
0.7616381241017571
 40
0.9972408881140533
 40
1.0
 40
1.0
 40
1.0
 40
1.0
 10
-19.04187367862967
 20
185.2101667290636
 30
0.0
 10
-19.05236510120725
 20
185.3138594363649
 30
0.0
 10
-19.07330227956114
 20
185.5207934999496
 30
0.0
 10
-19.24673768006749
 20
185.7483917615875
 30
0.0
 10
-19.56800656017402
 20
185.8909052632306
 30
0.0
 10
-20.02686386067751
 20
185.8558051387607
 30
0.0
 10
-20.37909261020151
 20
185.7223753678545
 30
0.0
 10
-20.54000663860964
 20
185.6411157308138
 30
0.0
 10
-20.54186926788595
 20
185.64017512557
 30
0.0
  0
SPLINE
  5
F4
330
1F
100
AcDbEntity
  8
0
  6
SLD-Solid
 62
     7
370
    15
100
AcDbSpline
210
0.0
220
0.0
230
1.0
 70
     8
 71
     3
 72
    13
 73
     9
 74
     0
 42
0.00000001
 43
0.00000001
 40
0.0
 40
0.0
 40
0.0
 40
0.0
 40
0.1410589682282792
 40
0.2815039385144474
 40
0.4793934522724628
 40
0.7616380328237994
 40
0.9972408880959455
 40
1.0
 40
1.0
 40
1.0
 40
1.0
 10
-19.04187367862967
 20
214.0998051008293
 30
0.0
 10
-19.05236510335137
 20
213.9961124126033
 30
0.0
 10
-19.07330228598417
 20
213.7891783870864
 30
0.0
 10
-19.24673761944065
 20
213.5615798424554
 30
0.0
 10
-19.56800665048369
 20
213.4190683269663
 30
0.0
 10
-20.02686401730044
 20
213.4541657674343
 30
0.0
 10
-20.37909254914941
 20
213.5875973660493
 30
0.0
 10
-20.54000663860411
 20
213.6688570304391
 30
0.0
 10
-20.54186926788595
 20
213.6697976356455
 30
0.0
  0
ARC
  5
F5
330
1F
100
AcDbEntity
  8
0
  6
SLD-Solid
 62
     7
370
    15
100
AcDbCircle
 10
-6.5418727016
 20
172.1549861368
 30
0.0
 40
0.5
100
AcDbArc
 50
270.0
 51
0.0
  0
LINE
  5
F6
330
1F
100
AcDbEntity
  8
0
  6
SLD-Solid
 62
     7
370
    15
100
AcDbLine
 10
-6.5418706984
 20
171.6549855163
 30
0.0
 11
-18.5418726654
 21
171.6549855163
 31
0.0
  0
ARC
  5
F7
330
1F
100
AcDbEntity
  8
0
  6
SLD-Solid
 62
     7
370
    15
100
AcDbCircle
 10
-18.5418727016
 20
172.1549861368
 30
0.0
 40
0.5
100
AcDbArc
 50
180.0
 51
270.0
  0
ARC
  5
F8
330
1F
100
AcDbEntity
  8
0
  6
SLD-Solid
 62
     7
370
    15
100
AcDbCircle
 10
-6.5418727016
 20
227.1549861368
 30
0.0
 40
0.5
100
AcDbArc
 50
0.0
 51
90.0
  0
ARC
  5
F9
330
1F
100
AcDbEntity
  8
0
  6
SLD-Solid
 62
     7
370
    15
100
AcDbCircle
 10
-18.5418727016
 20
227.1549861368
 30
0.0
 40
0.5
100
AcDbArc
 50
90.0
 51
180.0
  0
SPLINE
  5
FA
330
1F
100
AcDbEntity
  8
0
  6
SLD-Solid
 62
     7
370
    15
100
AcDbSpline
210
0.0
220
0.0
230
1.0
 70
     8
 71
     3
 72
    13
 73
     9
 74
     0
 42
0.00000001
 43
0.00000001
 40
0.0
 40
0.0
 40
0.0
 40
0.0
 40
0.1410584857742401
 40
0.2815042745877762
 40
0.4793921671293762
 40
0.7616382477975536
 40
0.9972389730944237
 40
1.0
 40
1.0
 40
1.0
 40
1.0
 10
-6.041869685118467
 20
214.0998051008293
 30
0.0
 10
-6.031382272875057
 20
213.9961123053644
 30
0.0
 10
-6.01045300116429
 20
213.7891771110222
 30
0.0
 10
-5.836999430818307
 20
213.5615807914774
 30
0.0
 10
-5.515759932315206
 20
213.419073359887
 30
0.0
 10
-5.056820163220149
 20
213.4541334083536
 30
0.0
 10
-4.704756649697855
 20
213.5876540701731
 30
0.0
 10
-4.543739216674308
 20
213.6688570335372
 30
0.0
 10
-4.54187409586218
 20
213.6697976356455
 30
0.0
  0
SPLINE
  5
FB
330
1F
100
AcDbEntity
  8
0
  6
SLD-Solid
 62
     7
370
    15
100
AcDbSpline
210
0.0
220
0.0
230
1.0
 70
     8
 71
     3
 72
    13
 73
     9
 74
     0
 42
0.00000001
 43
0.00000001
 40
0.0
 40
0.0
 40
0.0
 40
0.0
 40
0.0027610268874565
 40
0.2383616609238954
 40
0.5206077511288041
 40
0.7184957272596695
 40
0.8589415151514932
 40
1.0
 40
1.0
 40
1.0
 40
1.0
 10
-4.54187409586218
 20
185.64017512557
 30
0.0
 10
-4.543739216668757
 20
185.6411157277158
 30
0.0
 10
-4.704756588607473
 20
185.7223186637542
 30
0.0
 10
-5.056820319843197
 20
185.8558374978424
 30
0.0
 10
-5.515760022634264
 20
185.8909002303084
 30
0.0
 10
-5.836999370188472
 20
185.748390812563
 30
0.0
 10
-6.010453007587207
 20
185.5207947760141
 30
0.0
 10
-6.031382275019176
 20
185.3138595436039
 30
0.0
 10
-6.041869685118467
 20
185.2101667290636
 30
0.0
  0
SPLINE
  5
FC
330
1F
100
AcDbEntity
  8
0
  6
SLD-Solid
 62
     7
370
    15
100
AcDbSpline
210
0.0
220
0.0
230
1.0
 70
     8
 71
     3
 72
    13
 73
     9
 74
     0
 42
0.00000001
 43
0.00000001
 40
0.0
 40
0.0
 40
0.0
 40
0.0
 40
0.0027610278214039
 40
0.2383617415523273
 40
0.5206061570801731
 40
0.7184956320377787
 40
0.8589414674369221
 40
1.0
 40
1.0
 40
1.0
 40
1.0
 10
140.4581291823933
 20
185.64017512557
 30
0.0
 10
140.4599943031531
 20
185.6411157277105
 30
0.0
 10
140.621011671061
 20
185.7223186632943
 30
0.0
 10
140.973076476746
 20
185.8558372995472
 30
0.0
 10
141.4320053898863
 20
185.8908993211453
 30
0.0
 10
141.7532553133617
 20
185.7483916253618
 30
0.0
 10
141.9267077989648
 20
185.5207947474599
 30
0.0
 10
141.9476372630231
 20
185.313859534072
 30
0.0
 10
141.9581247716496
 20
185.2101667290636
 30
0.0
  0
SPLINE
  5
FD
330
1F
100
AcDbEntity
  8
0
  6
SLD-Solid
 62
     7
370
    15
100
AcDbSpline
210
0.0
220
0.0
230
1.0
 70
     8
 71
     3
 72
    13
 73
     9
 74
     0
 42
0.00000001
 43
0.00000001
 40
0.0
 40
0.0
 40
0.0
 40
0.0
 40
0.0027610278395224
 40
0.2383618328307803
 40
0.520606238821656
 40
0.7184956301904845
 40
0.8589414665112647
 40
1.0
 40
1.0
 40
1.0
 40
1.0
 10
140.4581291823933
 20
213.6697976356455
 30
0.0
 10
140.4599943031587
 20
213.6688570335425
 30
0.0
 10
140.62101173215
 20
213.5876540706328
 30
0.0
 10
140.9730763201254
 20
213.4541336066521
 30
0.0
 10
141.4320052995687
 20
213.4190742690479
 30
0.0
 10
141.7532553739913
 20
213.5615799786789
 30
0.0
 10
141.9267077925419
 20
213.7891771395761
 30
0.0
 10
141.947637260879
 20
213.9961123148962
 30
0.0
 10
141.9581247716496
 20
214.0998051008293
 30
0.0
  0
ARC
  5
FE
330
1F
100
AcDbEntity
  8
0
  6
SLD-Solid
 62
     7
370
    15
100
AcDbCircle
 10
154.4581272984
 20
172.1549861368
 30
0.0
 40
0.5
100
AcDbArc
 50
270.0
 51
0.0
  0
LINE
  5
FF
330
1F
100
AcDbEntity
  8
0
  6
SLD-Solid
 62
     7
370
    15
100
AcDbLine
 10
154.4581277519
 20
171.6549855163
 30
0.0
 11
142.4581257849
 21
171.6549855163
 31
0.0
  0
ARC
  5
100
330
1F
100
AcDbEntity
  8
0
  6
SLD-Solid
 62
     7
370
    15
100
AcDbCircle
 10
142.4581272984
 20
172.1549861368
 30
0.0
 40
0.5
100
AcDbArc
 50
180.0
 51
270.0
  0
ARC
  5
101
330
1F
100
AcDbEntity
  8
0
  6
SLD-Solid
 62
     7
370
    15
100
AcDbCircle
 10
154.4581272984
 20
227.1549861368
 30
0.0
 40
0.5
100
AcDbArc
 50
0.0
 51
90.0
  0
ARC
  5
102
330
1F
100
AcDbEntity
  8
0
  6
SLD-Solid
 62
     7
370
    15
100
AcDbCircle
 10
142.4581272984
 20
227.1549861368
 30
0.0
 40
0.5
100
AcDbArc
 50
90.0
 51
180.0
  0
SPLINE
  5
103
330
1F
100
AcDbEntity
  8
0
  6
SLD-Solid
 62
     7
370
    15
100
AcDbSpline
210
0.0
220
0.0
230
1.0
 70
     8
 71
     3
 72
    13
 73
     9
 74
     0
 42
0.00000001
 43
0.00000001
 40
0.0
 40
0.0
 40
0.0
 40
0.0
 40
0.0027610294929242
 40
0.2383618858560071
 40
0.5206064722540082
 40
0.7184960670134716
 40
0.8589410345417089
 40
1.0
 40
1.0
 40
1.0
 40
1.0
 10
156.458124354417
 20
185.64017512557
 30
0.0
 10
156.4562592336677
 20
185.6411157277082
 30
0.0
 10
156.2952418666711
 20
185.7223186630975
 30
0.0
 10
155.9431765474549
 20
185.8558374089743
 30
0.0
 10
155.4842500439163
 20
185.8908989161929
 30
0.0
 10
155.1629945453969
 20
185.7483927346381
 30
0.0
 10
154.9895569841821
 20
185.5207932910345
 30
0.0
 10
154.96862006025
 20
185.3138593666254
 30
0.0
 10
154.9581287651608
 20
185.2101667290636
 30
0.0
  0
SPLINE
  5
104
330
1F
100
AcDbEntity
  8
0
  6
SLD-Solid
 62
     7
370
    15
100
AcDbSpline
210
0.0
220
0.0
230
1.0
 70
     8
 71
     3
 72
    13
 73
     9
 74
     0
 42
0.00000001
 43
0.00000001
 40
0.0
 40
0.0
 40
0.0
 40
0.0
 40
0.141058966383952
 40
0.281503934833821
 40
0.4793934460044574
 40
0.7616380228654837
 40
0.9972389704889574
 40
1.0
 40
1.0
 40
1.0
 40
1.0
 10
154.9581287651608
 20
214.0998051008293
 30
0.0
 10
154.9686200623941
 20
213.9961124823429
 30
0.0
 10
154.9895569906053
 20
213.7891785960014
 30
0.0
 10
155.1629944847695
 20
213.561578869405
 30
0.0
 10
155.4842501342336
 20
213.4190746740007
 30
0.0
 10
155.943176704075
 20
213.4541334972247
 30
0.0
 10
156.2952418055826
 20
213.5876540708298
 30
0.0
 10
156.4562592336622
 20
213.6688570335448
 30
0.0
 10
156.458124354417
 20
213.6697976356455
 30
0.0
  0
LINE
  5
105
330
1F
100
AcDbEntity
  8
0
  6
SLD-Solid
 62
     7
370
    15
100
AcDbLine
 10
182.4581248909
 20
171.6549855163
 30
0.0
 11
170.4581303745
 21
171.6549855163
 31
0.0
  0
ARC
  5
106
330
1F
100
AcDbEntity
  8
0
  6
SLD-Solid
 62
     7
370
    15
100
AcDbCircle
 10
170.4581272984
 20
172.1549861368
 30
0.0
 40
0.5
100
AcDbArc
 50
180.0
 51
270.0
  0
LINE
  5
107
330
1F
100
AcDbEntity
  8
0
  6
SLD-Solid
 62
     7
370
    15
100
AcDbLine
 10
182.4581248909
 20
171.6549855163
 30
0.0
 11
182.4581248909
 21
172.1549865296
 31
0.0
  0
LINE
  5
108
330
1F
100
AcDbEntity
  8
0
  6
SLD-Solid
 62
     7
370
    15
100
AcDbLine
 10
182.4581248909
 20
227.6549853822
 30
0.0
 11
182.4581248909
 21
227.1549862316
 31
0.0
  0
ARC
  5
109
330
1F
100
AcDbEntity
  8
0
  6
SLD-Solid
 62
     7
370
    15
100
AcDbCircle
 10
170.4581272984
 20
227.1549861368
 30
0.0
 40
0.5
100
AcDbArc
 50
90.0
 51
180.0
  0
LINE
  5
10A
330
1F
100
AcDbEntity
  8
0
  6
SLD-Solid
 62
     7
370
    15
100
AcDbLine
 10
182.9581259041
 20
227.1549862316
 30
0.0
 11
182.9581259041
 21
172.1549865296
 31
0.0
  0
LINE
  5
10B
330
1F
100
AcDbEntity
  8
0
  6
SLD-Solid
 62
     7
370
    15
100
AcDbLine
 10
182.9581259041
 20
172.1549865296
 30
0.0
 11
182.4581248909
 21
172.1549865296
 31
0.0
  0
LINE
  5
10C
330
1F
100
AcDbEntity
  8
0
  6
SLD-Solid
 62
     7
370
    15
100
AcDbLine
 10
182.9581259041
 20
227.1549862316
 30
0.0
 11
182.4581248909
 21
227.1549862316
 31
0.0
  0
ARC
  5
10D
330
1F
100
AcDbEntity
  8
0
  6
SLD-Solid
 62
     7
370
    15
100
AcDbCircle
 10
182.4581272984
 20
172.1549861368
 30
0.0
 40
0.5
100
AcDbArc
 50
270.0
 51
0.0
  0
ARC
  5
10E
330
1F
100
AcDbEntity
  8
0
  6
SLD-Solid
 62
     7
370
    15
100
AcDbCircle
 10
182.4581272984
 20
227.1549861368
 30
0.0
 40
0.5
100
AcDbArc
 50
0.0
 51
90.0
  0
LINE
  5
10F
330
1F
100
AcDbEntity
  8
0
  6
SLD-Solid
 62
     7
370
    15
100
AcDbLine
 10
14.9207635074
 20
224.6549867531
 30
0.0
 11
14.9207635074
 21
216.3865019074
 31
0.0
  0
LINE
  5
110
330
1F
100
AcDbEntity
  8
0
  6
SLD-Solid
 62
     7
370
    15
100
AcDbLine
 10
14.9207635074
 20
224.6549867531
 30
0.0
 11
45.2081280052
 21
224.6549867531
 31
0.0
  0
LINE
  5
111
330
1F
100
AcDbEntity
  8
0
  6
SLD-Solid
 62
     7
370
    15
100
AcDbLine
 10
14.9207635074
 20
182.9234708538
 30
0.0
 11
14.9207635074
 21
175.1549870214
 31
0.0
  0
LINE
  5
112
330
1F
100
AcDbEntity
  8
0
  6
SLD-Solid
 62
     7
370
    15
100
AcDbLine
 10
44.7081269919
 20
174.6549860081
 30
0.0
 11
15.3822673708
 21
174.6549860081
 31
0.0
  0
ARC
  5
113
330
1F
100
AcDbEntity
  8
0
  6
SLD-Solid
 62
     7
370
    15
100
AcDbCircle
 10
15.4023203212
 20
175.1364808897
 30
0.0
 40
0.4819122760923458
100
AcDbArc
 50
177.7992176799
 51
267.6151650174
  0
CIRCLE
  5
114
330
1F
100
AcDbEntity
  8
0
  6
SLD-Solid
 62
     7
370
    15
100
AcDbCircle
 10
-12.5418727016
 20
177.6549861368
 30
0.0
 40
3.0
  0
CIRCLE
  5
115
330
1F
100
AcDbEntity
  8
0
  6
SLD-Solid
 62
     7
370
    15
100
AcDbCircle
 10
-12.5418727016
 20
221.6549861368
 30
0.0
 40
3.0
  0
CIRCLE
  5
116
330
1F
100
AcDbEntity
  8
0
  6
SLD-Solid
 62
     7
370
    15
100
AcDbCircle
 10
148.4581272984
 20
177.6549861368
 30
0.0
 40
3.0
  0
CIRCLE
  5
117
330
1F
100
AcDbEntity
  8
0
  6
SLD-Solid
 62
     7
370
    15
100
AcDbCircle
 10
148.4581272984
 20
221.6549861368
 30
0.0
 40
3.0
  0
LINE
  5
118
330
1F
100
AcDbEntity
  8
0
  6
SLD-Solid
 62
     7
370
    15
100
AcDbLine
 10
-47.5418718309
 20
199.6549861478
 30
0.0
 11
-47.5418718309
 21
213.9049863881
 31
0.0
  0
LINE
  5
119
330
1F
100
AcDbEntity
  8
0
  6
SLD-Solid
 62
     7
370
    15
100
AcDbLine
 10
-47.5418718309
 20
185.4049863732
 30
0.0
 11
-47.5418718309
 21
199.6549861478
 31
0.0
  0
SPLINE
  5
11A
330
1F
100
AcDbEntity
  8
0
  6
SLD-Solid
 62
     7
370
    15
100
AcDbSpline
210
0.0
220
0.0
230
1.0
 70
     8
 71
     3
 72
     9
 73
     5
 74
     0
 42
0.00000001
 43
0.00000001
 40
0.0
 40
0.0
 40
0.0
 40
0.0
 40
0.8839799597137553
 40
1.0
 40
1.0
 40
1.0
 40
1.0
 10
15.16741870337218
 20
174.6352158924648
 30
0.0
 10
15.18531151063093
 20
174.6242595341654
 30
0.0
 10
15.20555270169201
 20
174.6118651827109
 30
0.0
 10
15.17998846547716
 20
174.6274275318692
 30
0.0
 10
15.17702250176162
 20
174.6292330762454
 30
0.0
  0
LINE
  5
11B
330
1F
100
AcDbEntity
  8
0
  6
SLD-Solid
 62
     7
370
    15
100
AcDbLine
 10
183.4581269174
 20
199.6549861478
 30
0.0
 11
183.4581269174
 21
213.9049863881
 31
0.0
  0
LINE
  5
11C
330
1F
100
AcDbEntity
  8
0
  6
SLD-Solid
 62
     7
370
    15
100
AcDbLine
 10
183.4581269174
 20
185.4049863732
 30
0.0
 11
183.4581269174
 21
199.6549861478
 31
0.0
  0
LINE
  5
11D
330
1F
100
AcDbEntity
  8
0
  6
SLD-Solid
 62
     7
370
    15
100
AcDbLine
 10
42.9581271707
 20
171.6549855163
 30
0.0
 11
15.9581264704
 21
171.6549855163
 31
0.0
  0
SPLINE
  5
11E
330
1F
100
AcDbEntity
  8
0
  6
SLD-Solid
 62
     7
370
    15
100
AcDbSpline
210
0.0
220
0.0
230
1.0
 70
     8
 71
     3
 72
    12
 73
     8
 74
     0
 42
0.00000001
 43
0.00000001
 40
0.0
 40
0.0
 40
0.0
 40
0.0
 40
0.0043614458532785
 40
0.1252178842863546
 40
0.490217233505898
 40
0.8018603845917058
 40
1.0
 40
1.0
 40
1.0
 40
1.0
 10
-32.54187123483923
 20
227.1549862315961
 30
0.0
 10
-32.54425789758586
 20
227.1558299718999
 30
0.0
 10
-32.61277940849946
 20
227.1800539057249
 30
0.0
 10
-32.88109883854587
 20
227.2752558985019
 30
0.0
 10
-33.31114714544833
 20
227.426803677494
 30
0.0
 10
-33.76184337175858
 20
227.6086592931697
 30
0.0
 10
-34.0531231649727
 20
227.6420192242098
 30
0.0
 10
-34.16633622354775
 20
227.6549853822299
 30
0.0
  0
LINE
  5
11F
330
1F
100
AcDbEntity
  8
0
  6
SLD-Solid
 62
     7
370
    15
100
AcDbLine
 10
-32.5418712348
 20
227.1549862316
 30
0.0
 11
-34.0418742747
 21
227.1549862316
 31
0.0
  0
LINE
  5
120
330
1F
100
AcDbEntity
  8
0
  6
SLD-Solid
 62
     7
370
    15
100
AcDbLine
 10
-34.0418742747
 20
172.1549865296
 30
0.0
 11
-32.5418712348
 21
172.1549865296
 31
0.0
  0
SPLINE
  5
121
330
1F
100
AcDbEntity
  8
0
  6
SLD-Solid
 62
     7
370
    15
100
AcDbSpline
210
0.0
220
0.0
230
1.0
 70
     8
 71
     3
 72
    12
 73
     8
 74
     0
 42
0.00000001
 43
0.00000001
 40
0.0
 40
0.0
 40
0.0
 40
0.0
 40
0.0043614444429276
 40
0.125218200642903
 40
0.4902170737582801
 40
0.8018604486636672
 40
1.0
 40
1.0
 40
1.0
 40
1.0
 10
-32.54187123483923
 20
172.1549865296194
 30
0.0
 10
-32.5442578977456
 20
172.1541427897692
 30
0.0
 10
-32.61277960851941
 20
172.1299187999353
 30
0.0
 10
-32.88109750959411
 20
172.0347124654488
 30
0.0
 10
-33.3111482249295
 20
171.8831710984889
 30
0.0
 10
-33.76184301970811
 20
171.7013111084655
 30
0.0
 10
-34.05312311834791
 20
171.6679515293288
 30
0.0
 10
-34.16633622354773
 20
171.6549855163404
 30
0.0
  0
LINE
  5
122
330
1F
100
AcDbEntity
  8
0
  6
SLD-Solid
 62
     7
370
    15
100
AcDbLine
 10
-34.1663362235
 20
171.6549855163
 30
0.0
 11
-34.541875288
 21
171.6549855163
 31
0.0
  0
LINE
  5
123
330
1F
100
AcDbEntity
  8
0
  6
SLD-Solid
 62
     7
370
    15
100
AcDbLine
 10
-34.0418742747
 20
184.0665286845
 30
0.0
 11
-32.5418712348
 21
184.0665286845
 31
0.0
  0
LINE
  5
124
330
1F
100
AcDbEntity
  8
0
  6
SLD-Solid
 62
     7
370
    15
100
AcDbLine
 10
-32.5418712348
 20
184.0665286845
 30
0.0
 11
-32.5418712348
 21
172.1549865296
 31
0.0
  0
LINE
  5
125
330
1F
100
AcDbEntity
  8
0
  6
SLD-Solid
 62
     7
370
    15
100
AcDbLine
 10
-32.5418712348
 20
215.2434431454
 30
0.0
 11
-34.0418742747
 21
215.2434431454
 31
0.0
  0
LINE
  5
126
330
1F
100
AcDbEntity
  8
0
  6
SLD-Solid
 62
     7
370
    15
100
AcDbLine
 10
-32.5418712348
 20
227.1549862316
 30
0.0
 11
-32.5418712348
 21
215.2434431454
 31
0.0
  0
LINE
  5
127
330
1F
100
AcDbEntity
  8
0
  6
SLD-Solid
 62
     7
370
    15
100
AcDbLine
 10
-32.5418712348
 20
185.3655672139
 30
0.0
 11
-32.5418712348
 21
184.0665286845
 31
0.0
  0
LINE
  5
128
330
1F
100
AcDbEntity
  8
0
  6
SLD-Solid
 62
     7
370
    15
100
AcDbLine
 10
-32.5418712348
 20
215.2434431454
 30
0.0
 11
-32.5418712348
 21
213.9444055474
 31
0.0
  0
ARC
  5
129
330
1F
100
AcDbEntity
  8
0
  6
SLD-Solid
 62
     7
370
    15
100
AcDbCircle
 10
14.3680337731
 20
182.6482826307
 30
0.0
 40
1.865215675132099
100
AcDbArc
 50
116.4837554465
 51
171.5157841934
  0
SPLINE
  5
12A
330
1F
100
AcDbEntity
  8
0
  6
SLD-Solid
 62
     7
370
    15
100
AcDbSpline
210
0.0
220
0.0
230
1.0
 70
     8
 71
     3
 72
    14
 73
    10
 74
     0
 42
0.00000001
 43
0.00000001
 40
0.0
 40
0.0
 40
0.0
 40
0.0
 40
0.2082702007890953
 40
0.4268621177045214
 40
0.4940868554020641
 40
0.7057404219069553
 40
0.7240585700462718
 40
0.9652969992417244
 40
1.0
 40
1.0
 40
1.0
 40
1.0
 10
12.52323000126571
 20
182.9234708538362
 30
0.0
 10
11.93290913866327
 20
183.1624051110771
 30
0.0
 10
10.72301155090988
 20
183.6521150294982
 30
0.0
 10
8.916040801174308
 20
184.0109793373256
 30
0.0
 10
7.064778441866704
 20
184.1008272681235
 30
0.0
 10
5.93549051601891
 20
183.9865854204527
 30
0.0
 10
4.292740700677339
 20
183.6435105581222
 30
0.0
 10
3.337091357187489
 20
183.3226027910914
 30
0.0
 10
2.591155569404452
 20
183.0080928743041
 30
0.0
 10
2.497345045144289
 20
182.968539415867
 30
0.0
  0
ARC
  5
12B
330
1F
100
AcDbEntity
  8
0
  6
SLD-Solid
 62
     7
370
    15
100
AcDbCircle
 10
0.6310922699
 20
182.6861804201
 30
0.0
 40
1.88749199297988
100
AcDbArc
 50
8.6034456256
 51
62.4127191559
  0
SPLINE
  5
12C
330
1F
100
AcDbEntity
  8
0
  6
SLD-Solid
 62
     7
370
    15
100
AcDbSpline
210
0.0
220
0.0
230
1.0
 70
     8
 71
     3
 72
    10
 73
     6
 74
     0
 42
0.00000001
 43
0.00000001
 40
0.0
 40
0.0
 40
0.0
 40
0.0
 40
0.2612712297370937
 40
0.5244363505423975
 40
1.0
 40
1.0
 40
1.0
 40
1.0
 10
-32.54187123483923
 20
215.243443145425
 30
0.0
 10
-32.05940259572016
 20
215.262667135817
 30
0.0
 10
-31.09096802064134
 20
215.3012544665928
 30
0.0
 10
-29.32588849938525
 20
215.6620720577924
 30
0.0
 10
-28.26441928136855
 20
216.0753693166488
 30
0.0
 10
-27.58108840889242
 20
216.3414333453485
 30
0.0
  0
ARC
  5
12D
330
1F
100
AcDbEntity
  8
0
  6
SLD-Solid
 62
     7
370
    15
100
AcDbCircle
 10
-25.7148535996
 20
216.6237795223
 30
0.0
 40
1.887472311636754
100
AcDbArc
 50
188.6031424641
 51
242.4130223174
  0
SPLINE
  5
12E
330
1F
100
AcDbEntity
  8
0
  6
SLD-Solid
 62
     7
370
    15
100
AcDbSpline
210
0.0
220
0.0
230
1.0
 70
     8
 71
     3
 72
    13
 73
     9
 74
     0
 42
0.00000001
 43
0.00000001
 40
0.0
 40
0.0
 40
0.0
 40
0.0
 40
0.0137980687515664
 40
0.2225107854661622
 40
0.422629961369242
 40
0.6221395449500221
 40
0.7521327032572156
 40
1.0
 40
1.0
 40
1.0
 40
1.0
 10
2.497345045144261
 20
216.3414333453485
 30
0.0
 10
2.534366211996458
 20
216.3256854484627
 30
0.0
 10
3.131377943382224
 20
216.0717312923712
 30
0.0
 10
4.435748057580985
 20
215.5983613641856
 30
0.0
 10
6.640753437933133
 20
215.1942114260409
 30
0.0
 10
8.659248586508571
 20
215.259398390248
 30
0.0
 10
10.71984496480108
 20
215.6676519944649
 30
0.0
 10
11.80886153559643
 20
216.1017464619522
 30
0.0
 10
12.52323000126571
 20
216.3865019073793
 30
0.0
  0
ARC
  5
12F
330
1F
100
AcDbEntity
  8
0
  6
SLD-Solid
 62
     7
370
    15
100
AcDbCircle
 10
14.3680345435
 20
216.6616895751
 30
0.0
 40
1.865216355098151
100
AcDbArc
 50
188.48419544
 51
243.5162285222
  0
ARC
  5
130
330
1F
100
AcDbEntity
  8
0
  6
SLD-Solid
 62
     7
370
    15
100
AcDbCircle
 10
0.6310951185
 20
216.6237903086
 30
0.0
 40
1.887488872355918
100
AcDbArc
 50
297.5872327761
 51
351.3966024424
  0
ARC
  5
131
330
1F
100
AcDbEntity
  8
0
  6
SLD-Solid
 62
     7
370
    15
100
AcDbCircle
 10
-25.714850751
 20
182.6861912065
 30
0.0
 40
1.887475432161187
100
AcDbArc
 50
117.5870257501
 51
171.3968094684
  0
SPLINE
  5
132
330
1F
100
AcDbEntity
  8
0
  6
SLD-Solid
 62
     7
370
    15
100
AcDbSpline
210
0.0
220
0.0
230
1.0
 70
     8
 71
     3
 72
    10
 73
     6
 74
     0
 42
0.00000001
 43
0.00000001
 40
0.0
 40
0.0
 40
0.0
 40
0.0
 40
0.4474514201070319
 40
0.5753150417638015
 40
1.0
 40
1.0
 40
1.0
 40
1.0
 10
-27.58108840889242
 20
182.968539415867
 30
0.0
 10
-28.21900162175603
 20
183.2187712782103
 30
0.0
 10
-29.03920477724611
 20
183.5405093437645
 30
0.0
 10
-30.73160795589744
 20
183.9539863311201
 30
0.0
 10
-31.75516922859653
 20
184.0176201659138
 30
0.0
 10
-32.54187123483926
 20
184.0665286844679
 30
0.0
  0
ARC
  5
133
330
1F
100
AcDbEntity
  8
0
  6
SLD-Solid
 62
     7
370
    15
100
AcDbCircle
 10
-34.7566180527
 20
171.2748160489
 30
0.0
 40
0.7021121433131498
100
AcDbArc
 50
350.173206584
 51
32.7834541834
  0
SPLINE
  5
134
330
1F
100
AcDbEntity
  8
0
  6
SLD-Solid
 62
     7
370
    15
100
AcDbSpline
210
0.0
220
0.0
230
1.0
 70
     8
 71
     3
 72
    13
 73
     9
 74
     0
 42
0.00000001
 43
0.00000001
 40
0.0
 40
0.0
 40
0.0
 40
0.0
 40
0.0033576630281623
 40
0.1033259207344845
 40
0.4218407524016203
 40
0.7452106419134693
 40
0.7569040197311776
 40
1.0
 40
1.0
 40
1.0
 40
1.0
 10
-32.54187123483923
 20
172.1549865296194
 30
0.0
 10
-32.54326696422108
 20
172.1534069953136
 30
0.0
 10
-32.58621797576217
 20
172.1047997243905
 30
0.0
 10
-32.76171824684729
 20
171.9064847027479
 30
0.0
 10
-33.08056122779887
 20
171.5669160243143
 30
0.0
 10
-33.42374029553419
 20
171.3293791343266
 30
0.0
 10
-33.75594871752507
 20
171.190799533897
 30
0.0
 10
-33.91400487761306
 20
171.1724723942298
 30
0.0
 10
-34.06480716175345
 20
171.1549863657066
 30
0.0
  0
SPLINE
  5
135
330
1F
100
AcDbEntity
  8
0
  6
SLD-Solid
 62
     7
370
    15
100
AcDbSpline
210
0.0
220
0.0
230
1.0
 70
     8
 71
     3
 72
     9
 73
     5
 74
     0
 42
0.00000001
 43
0.00000001
 40
0.0
 40
0.0
 40
0.0
 40
0.0
 40
0.3665165524430226
 40
1.0
 40
1.0
 40
1.0
 40
1.0
 10
-26.96099148697165
 20
226.9591626217672
 30
0.0
 10
-26.90660937964076
 20
227.0018130929081
 30
0.0
 10
-26.75823379614137
 20
227.1181802006325
 30
0.0
 10
-26.6044299803522
 20
227.1407124344416
 30
0.0
 10
-26.50699780887869
 20
227.1549862315961
 30
0.0
  0
SPLINE
  5
136
330
1F
100
AcDbEntity
  8
0
  6
SLD-Solid
 62
     7
370
    15
100
AcDbSpline
210
0.0
220
0.0
230
1.0
 70
     8
 71
     3
 72
    10
 73
     6
 74
     0
 42
0.00000001
 43
0.00000001
 40
0.0
 40
0.0
 40
0.0
 40
0.0
 40
0.0105059543620668
 40
0.8360086188226007
 40
1.0
 40
1.0
 40
1.0
 40
1.0
 10
-27.23665551847723
 20
226.6549852183172
 30
0.0
 10
-27.23573925611142
 20
226.6561813220743
 30
0.0
 10
-27.16282791378963
 20
226.7513609712072
 30
0.0
 10
-27.07200028858023
 20
226.8587220846244
 30
0.0
 10
-26.976773642754
 20
226.9448829594244
 30
0.0
 10
-26.96099148697165
 20
226.9591626217672
 30
0.0
  0
SPLINE
  5
137
330
1F
100
AcDbEntity
  8
0
  6
SLD-Solid
 62
     7
370
    15
100
AcDbSpline
210
0.0
220
0.0
230
1.0
 70
     8
 71
     3
 72
    10
 73
     6
 74
     0
 42
0.00000001
 43
0.00000001
 40
0.0
 40
0.0
 40
0.0
 40
0.0
 40
0.0091879385438893
 40
0.2211642408520917
 40
1.0
 40
1.0
 40
1.0
 40
1.0
 10
-27.58108840889245
 20
226.1549860676834
 30
0.0
 10
-27.58004273587902
 20
226.156565515439
 30
0.0
 10
-27.55487218460748
 20
226.1945846382446
 30
0.0
 10
-27.44191329871512
 20
226.3670811842477
 30
0.0
 10
-27.32699106277667
 20
226.5282764153986
 30
0.0
 10
-27.23665551847723
 20
226.6549852183172
 30
0.0
  0
LINE
  5
138
330
1F
100
AcDbEntity
  8
0
  6
SLD-Solid
 62
     7
370
    15
100
AcDbLine
 10
-27.5810884089
 20
216.3414333453
 30
0.0
 11
-27.5810884089
 21
226.1549860677
 31
0.0
  0
LINE
  5
139
330
1F
100
AcDbEntity
  8
0
  6
SLD-Solid
 62
     7
370
    15
100
AcDbLine
 10
-27.5810884089
 20
173.1549866935
 30
0.0
 11
-27.5810884089
 21
182.9685394159
 31
0.0
  0
SPLINE
  5
13A
330
1F
100
AcDbEntity
  8
0
  6
SLD-Solid
 62
     7
370
    15
100
AcDbSpline
210
0.0
220
0.0
230
1.0
 70
     8
 71
     3
 72
     9
 73
     5
 74
     0
 42
0.00000001
 43
0.00000001
 40
0.0
 40
0.0
 40
0.0
 40
0.0
 40
0.9908104615968087
 40
1.0
 40
1.0
 40
1.0
 40
1.0
 10
-27.23665551847723
 20
172.6549856802532
 30
0.0
 10
-27.35093278688105
 20
172.817489256402
 30
0.0
 10
-27.46626995058002
 20
172.9815000157221
 30
0.0
 10
-27.58004288811372
 20
173.1534069481746
 30
0.0
 10
-27.58108840889242
 20
173.1549866935321
 30
0.0
  0
SPLINE
  5
13B
330
1F
100
AcDbEntity
  8
0
  6
SLD-Solid
 62
     7
370
    15
100
AcDbSpline
210
0.0
220
0.0
230
1.0
 70
     8
 71
     3
 72
     9
 73
     5
 74
     0
 42
0.00000001
 43
0.00000001
 40
0.0
 40
0.0
 40
0.0
 40
0.0
 40
0.9894868966825504
 40
1.0
 40
1.0
 40
1.0
 40
1.0
 10
-26.96099148697165
 20
172.3508082768031
 30
0.0
 10
-27.05429755392105
 20
172.4449231844381
 30
0.0
 10
-27.14859497944758
 20
172.540038044423
 30
0.0
 10
-27.23573936059473
 20
172.6537897963328
 30
0.0
 10
-27.23665551847723
 20
172.6549856802532
 30
0.0
  0
SPLINE
  5
13C
330
1F
100
AcDbEntity
  8
0
  6
SLD-Solid
 62
     7
370
    15
100
AcDbSpline
210
0.0
220
0.0
230
1.0
 70
     8
 71
     3
 72
     9
 73
     5
 74
     0
 42
0.00000001
 43
0.00000001
 40
0.0
 40
0.0
 40
0.0
 40
0.0
 40
0.3625330854490321
 40
1.0
 40
1.0
 40
1.0
 40
1.0
 10
-26.50699780887869
 20
172.1549865296194
 30
0.0
 10
-26.56196057127472
 20
172.159680795433
 30
0.0
 10
-26.71356814752654
 20
172.1726293124154
 30
0.0
 10
-26.8646694230677
 20
172.2814430922875
 30
0.0
 10
-26.96099148697165
 20
172.3508082768031
 30
0.0
  0
LINE
  5
13D
330
1F
100
AcDbEntity
  8
0
  6
SLD-Solid
 62
     7
370
    15
100
AcDbLine
 10
-32.5418712348
 20
166.1549855461
 30
0.0
 11
-39.5418705196
 21
166.1549855461
 31
0.0
  0
LINE
  5
13E
330
1F
100
AcDbEntity
  8
0
  6
SLD-Solid
 62
     7
370
    15
100
AcDbLine
 10
-25.5418719501
 20
166.1549855461
 30
0.0
 11
-32.5418712348
 21
166.1549855461
 31
0.0
  0
LINE
  5
13F
330
1F
100
AcDbEntity
  8
0
  6
SLD-Solid
 62
     7
370
    15
100
AcDbLine
 10
-39.5418705196
 20
233.1549872151
 30
0.0
 11
-25.5418719501
 21
233.1549872151
 31
0.0
  0
LINE
  5
140
330
1F
100
AcDbEntity
  8
0
  6
SLD-Solid
 62
     7
370
    15
100
AcDbLine
 10
12.5232300013
 20
175.1549870214
 30
0.0
 11
12.5232300013
 21
182.9234708538
 31
0.0
  0
SPLINE
  5
141
330
1F
100
AcDbEntity
  8
0
  6
SLD-Solid
 62
     7
370
    15
100
AcDbSpline
210
0.0
220
0.0
230
1.0
 70
     8
 71
     3
 72
    13
 73
     9
 74
     0
 42
0.00000001
 43
0.00000001
 40
0.0
 40
0.0
 40
0.0
 40
0.0
 40
0.2430956992700422
 40
0.2547916380756242
 40
0.5781609690664731
 40
0.896673729408717
 40
0.9966411901905854
 40
1.0
 40
1.0
 40
1.0
 40
1.0
 10
13.54087500267714
 20
174.1549868574449
 30
0.0
 10
13.4490475822033
 20
174.17247206026
 30
0.0
 10
13.35280211610479
 20
174.190798519678
 30
0.0
 10
13.14008232373451
 20
174.3293792409152
 30
0.0
 10
12.91053207326243
 20
174.566912708794
 30
0.0
 10
12.68428522536405
 20
174.9064908665278
 30
0.0
 10
12.55592986571269
 20
175.1047968751194
 30
0.0
 10
12.52425950440766
 20
175.1534068645552
 30
0.0
 10
12.52323000126571
 20
175.1549870213577
 30
0.0
  0
SPLINE
  5
142
330
1F
100
AcDbEntity
  8
0
  6
SLD-Solid
 62
     7
370
    15
100
AcDbSpline
210
0.0
220
0.0
230
1.0
 70
     8
 71
     3
 72
     9
 73
     5
 74
     0
 42
0.00000001
 43
0.00000001
 40
0.0
 40
0.0
 40
0.0
 40
0.0
 40
0.3665158942819207
 40
1.0
 40
1.0
 40
1.0
 40
1.0
 10
1.877248123223513
 20
172.3508082768031
 30
0.0
 10
1.822865986390615
 20
172.308158539808
 30
0.0
 10
1.67449005595674
 20
172.1917932261599
 30
0.0
 10
1.52068653258805
 20
172.169260593971
 30
0.0
 10
1.423254445130556
 20
172.1549865296194
 30
0.0
  0
SPLINE
  5
143
330
1F
100
AcDbEntity
  8
0
  6
SLD-Solid
 62
     7
370
    15
100
AcDbSpline
210
0.0
220
0.0
230
1.0
 70
     8
 71
     3
 72
    10
 73
     6
 74
     0
 42
0.00000001
 43
0.00000001
 40
0.0
 40
0.0
 40
0.0
 40
0.0
 40
0.0105034580298492
 40
0.8360149664794415
 40
1.0
 40
1.0
 40
1.0
 40
1.0
 10
2.152912154729098
 20
172.6549856802532
 30
0.0
 10
2.151995891198438
 20
172.6537901998026
 30
0.0
 10
2.079066573760419
 20
172.5586368183212
 30
0.0
 10
1.988242845339161
 20
172.4512559966527
 30
0.0
 10
1.893027719199247
 20
172.365088455227
 30
0.0
 10
1.877248123223485
 20
172.3508082768031
 30
0.0
  0
SPLINE
  5
144
330
1F
100
AcDbEntity
  8
0
  6
SLD-Solid
 62
     7
370
    15
100
AcDbSpline
210
0.0
220
0.0
230
1.0
 70
     8
 71
     3
 72
    10
 73
     6
 74
     0
 42
0.00000001
 43
0.00000001
 40
0.0
 40
0.0
 40
0.0
 40
0.0
 40
0.0091932967127656
 40
0.2211638263563713
 40
1.0
 40
1.0
 40
1.0
 40
1.0
 10
2.497345045144289
 20
173.1549866935321
 30
0.0
 10
2.496296845508006
 20
173.1534072670673
 30
0.0
 10
2.471080228489464
 20
173.1154108865157
 30
0.0
 10
2.358250170153176
 20
172.9428503983235
 30
0.0
 10
2.243283311712946
 20
172.7816776012456
 30
0.0
 10
2.152912154729098
 20
172.6549856802532
 30
0.0
  0
LINE
  5
145
330
1F
100
AcDbEntity
  8
0
  6
SLD-Solid
 62
     7
370
    15
100
AcDbLine
 10
2.4973450451
 20
182.9685394159
 30
0.0
 11
2.4973450451
 21
173.1549866935
 31
0.0
  0
LINE
  5
146
330
1F
100
AcDbEntity
  8
0
  6
SLD-Solid
 62
     7
370
    15
100
AcDbLine
 10
0.4581285863
 20
233.1549872151
 30
0.0
 11
14.4581271558
 21
233.1549872151
 31
0.0
  0
LINE
  5
147
330
1F
100
AcDbEntity
  8
0
  6
SLD-Solid
 62
     7
370
    15
100
AcDbLine
 10
7.4581278711
 20
166.1549855461
 30
0.0
 11
0.4581285863
 21
166.1549855461
 31
0.0
  0
LINE
  5
148
330
1F
100
AcDbEntity
  8
0
  6
SLD-Solid
 62
     7
370
    15
100
AcDbLine
 10
14.4581271558
 20
166.1549855461
 30
0.0
 11
7.4581278711
 21
166.1549855461
 31
0.0
  0
LINE
  5
149
330
1F
100
AcDbEntity
  8
0
  6
SLD-Solid
 62
     7
370
    15
100
AcDbLine
 10
12.5232300013
 20
216.3865019074
 30
0.0
 11
12.5232300013
 21
224.6549867531
 31
0.0
  0
LINE
  5
14A
330
1F
100
AcDbEntity
  8
0
  6
SLD-Solid
 62
     7
370
    15
100
AcDbLine
 10
2.4973450451
 20
226.1549860677
 30
0.0
 11
2.4973450451
 21
216.3414333453
 31
0.0
  0
SPLINE
  5
14B
330
1F
100
AcDbEntity
  8
0
  6
SLD-Solid
 62
     7
370
    15
100
AcDbSpline
210
0.0
220
0.0
230
1.0
 70
     8
 71
     3
 72
     9
 73
     5
 74
     0
 42
0.00000001
 43
0.00000001
 40
0.0
 40
0.0
 40
0.0
 40
0.0
 40
0.9908050658715276
 40
0.9999999999999999
 40
0.9999999999999999
 40
0.9999999999999999
 40
0.9999999999999999
 10
2.15291215472907
 20
226.6549852183172
 30
0.0
 10
2.267086206215047
 20
226.4924325885946
 30
0.0
 10
2.382319823218765
 20
226.3283714273009
 30
0.0
 10
2.496297032215406
 20
226.1565658090263
 30
0.0
 10
2.497345045144289
 20
226.1549860676834
 30
0.0
  0
SPLINE
  5
14C
330
1F
100
AcDbEntity
  8
0
  6
SLD-Solid
 62
     7
370
    15
100
AcDbSpline
210
0.0
220
0.0
230
1.0
 70
     8
 71
     3
 72
     9
 73
     5
 74
     0
 42
0.00000001
 43
0.00000001
 40
0.0
 40
0.0
 40
0.0
 40
0.0
 40
0.9894843905764767
 40
1.0
 40
1.0
 40
1.0
 40
1.0
 10
1.877248123223513
 20
226.9591626217672
 30
0.0
 10
1.970564462251662
 20
226.8650641265148
 30
0.0
 10
2.064872507852838
 20
226.7699656124316
 30
0.0
 10
2.151995998133676
 20
226.6561817252336
 30
0.0
 10
2.152912154729098
 20
226.6549852183172
 30
0.0
  0
SPLINE
  5
14D
330
1F
100
AcDbEntity
  8
0
  6
SLD-Solid
 62
     7
370
    15
100
AcDbSpline
210
0.0
220
0.0
230
1.0
 70
     8
 71
     3
 72
     9
 73
     5
 74
     0
 42
0.00000001
 43
0.00000001
 40
0.0
 40
0.0
 40
0.0
 40
0.0
 40
0.3625327678898507
 40
0.9999999999999999
 40
0.9999999999999999
 40
0.9999999999999999
 40
0.9999999999999999
 10
1.423254445130556
 20
227.1549862315961
 30
0.0
 10
1.478217221161177
 20
227.1502920181225
 30
0.0
 10
1.629824967822407
 20
227.1373436341711
 30
0.0
 10
1.780926101664498
 20
227.0285286246797
 30
0.0
 10
1.877248123223513
 20
226.9591626217672
 30
0.0
  0
LINE
  5
14E
330
1F
100
AcDbEntity
  8
0
  6
SLD-Solid
 62
     7
370
    15
100
AcDbLine
 10
-26.5889318437
 20
216.3414333453
 30
0.0
 11
-26.5889318437
 21
214.9508960983
 31
0.0
  0
LINE
  5
14F
330
1F
100
AcDbEntity
  8
0
  6
SLD-Solid
 62
     7
370
    15
100
AcDbLine
 10
-26.5889318437
 20
216.3414333453
 30
0.0
 11
-27.5810884089
 21
216.3414333453
 31
0.0
  0
LINE
  5
150
330
1F
100
AcDbEntity
  8
0
  6
SLD-Solid
 62
     7
370
    15
100
AcDbLine
 10
-26.5889318437
 20
184.3590766629
 30
0.0
 11
-26.5889318437
 21
182.9685394159
 31
0.0
  0
LINE
  5
151
330
1F
100
AcDbEntity
  8
0
  6
SLD-Solid
 62
     7
370
    15
100
AcDbLine
 10
-27.5810884089
 20
182.9685394159
 30
0.0
 11
-26.5889318437
 21
182.9685394159
 31
0.0
  0
LINE
  5
152
330
1F
100
AcDbEntity
  8
0
  6
SLD-Solid
 62
     7
370
    15
100
AcDbLine
 10
1.50518848
 20
216.3414333453
 30
0.0
 11
1.50518848
 21
214.9508960983
 31
0.0
  0
LINE
  5
153
330
1F
100
AcDbEntity
  8
0
  6
SLD-Solid
 62
     7
370
    15
100
AcDbLine
 10
1.50518848
 20
184.3590766629
 30
0.0
 11
1.50518848
 21
182.9685394159
 31
0.0
  0
LINE
  5
154
330
1F
100
AcDbEntity
  8
0
  6
SLD-Solid
 62
     7
370
    15
100
AcDbLine
 10
2.4973450451
 20
216.3414333453
 30
0.0
 11
1.50518848
 21
216.3414333453
 31
0.0
  0
LINE
  5
155
330
1F
100
AcDbEntity
  8
0
  6
SLD-Solid
 62
     7
370
    15
100
AcDbLine
 10
1.50518848
 20
182.9685394159
 30
0.0
 11
2.4973450451
 21
182.9685394159
 31
0.0
  0
LINE
  5
156
330
1F
100
AcDbEntity
  8
0
  6
SLD-Solid
 62
     7
370
    15
100
AcDbLine
 10
14.9207635074
 20
216.3865019074
 30
0.0
 11
12.5232300013
 21
216.3865019074
 31
0.0
  0
LINE
  5
157
330
1F
100
AcDbEntity
  8
0
  6
SLD-Solid
 62
     7
370
    15
100
AcDbLine
 10
12.5232300013
 20
182.9234708538
 30
0.0
 11
14.9207635074
 21
182.9234708538
 31
0.0
  0
SPLINE
  5
158
330
1F
100
AcDbEntity
  8
0
  6
SLD-Solid
 62
     7
370
    15
100
AcDbSpline
210
0.0
220
0.0
230
1.0
 70
     8
 71
     3
 72
    12
 73
     8
 74
     0
 42
0.00000001
 43
0.00000001
 40
0.0
 40
0.0
 40
0.0
 40
0.0
 40
0.0043628037506009
 40
0.1252195787205899
 40
0.4902147568474751
 40
0.8018590309574286
 40
1.0
 40
1.0
 40
1.0
 40
1.0
 10
12.52323000126571
 20
175.1549870213577
 30
0.0
 10
12.52499248373648
 20
175.1541426534535
 30
0.0
 10
12.57557860337599
 20
175.1299079183415
 30
0.0
 10
12.78156419728388
 20
175.0347306303362
 30
0.0
 10
13.15951327886275
 20
174.8831643935483
 30
0.0
 10
13.60212535522001
 20
174.7013122247984
 30
0.0
 10
13.85003507539498
 20
174.6679522202556
 30
0.0
 10
13.94639147811622
 20
174.6549860080787
 30
0.0
  0
LINE
  5
159
330
1F
100
AcDbEntity
  8
0
  6
SLD-Solid
 62
     7
370
    15
100
AcDbLine
 10
12.5232300013
 20
175.1549870214
 30
0.0
 11
14.9207635074
 21
175.1549870214
 31
0.0
  0
LINE
  5
15A
330
1F
100
AcDbEntity
  8
0
  6
SLD-Solid
 62
     7
370
    15
100
AcDbLine
 10
15.3822673708
 20
174.6549860081
 30
0.0
 11
13.9463914781
 21
174.6549860081
 31
0.0
  0
LINE
  5
15B
330
1F
100
AcDbEntity
  8
0
  6
SLD-Solid
 62
     7
370
    15
100
AcDbLine
 10
12.5232300013
 20
224.6549867531
 30
0.0
 11
14.9207635074
 21
224.6549867531
 31
0.0
  0
LINE
  5
15C
330
1F
100
AcDbEntity
  8
0
  6
SLD-Solid
 62
     7
370
    15
100
AcDbLine
 10
29.4581277519
 20
166.8418545714
 30
0.0
 11
35.4581287354
 21
166.8418545714
 31
0.0
  0
LINE
  5
15D
330
1F
100
AcDbEntity
  8
0
  6
SLD-Solid
 62
     7
370
    15
100
AcDbLine
 10
23.4581267684
 20
166.8418545714
 30
0.0
 11
29.4581277519
 21
166.8418545714
 31
0.0
  0
LINE
  5
15E
330
1F
100
AcDbEntity
  8
0
  6
SLD-Solid
 62
     7
370
    15
100
AcDbLine
 10
35.4581287354
 20
232.4681181898
 30
0.0
 11
23.4581267684
 21
232.4681181898
 31
0.0
  0
LINE
  5
15F
330
1F
100
AcDbEntity
  8
0
  6
SLD-Solid
 62
     7
370
    15
100
AcDbLine
 10
35.2081282287
 20
166.1549855461
 30
0.0
 11
31.5655132979
 21
166.1549855461
 31
0.0
  0
LINE
  5
160
330
1F
100
AcDbEntity
  8
0
  6
SLD-Solid
 62
     7
370
    15
100
AcDbLine
 10
31.5655132979
 20
166.1549855461
 30
0.0
 11
30.3080266564
 21
166.1549855461
 31
0.0
  0
LINE
  5
161
330
1F
100
AcDbEntity
  8
0
  6
SLD-Solid
 62
     7
370
    15
100
AcDbLine
 10
30.3080266564
 20
166.1549855461
 30
0.0
 11
24.1082271784
 21
166.1549855461
 31
0.0
  0
LINE
  5
162
330
1F
100
AcDbEntity
  8
0
  6
SLD-Solid
 62
     7
370
    15
100
AcDbLine
 10
24.1082271784
 20
166.1549855461
 30
0.0
 11
23.7712858468
 21
166.1549855461
 31
0.0
  0
LINE
  5
163
330
1F
100
AcDbEntity
  8
0
  6
SLD-Solid
 62
     7
370
    15
100
AcDbLine
 10
23.7712858468
 20
166.1549855461
 30
0.0
 11
23.708127275
 21
166.1549855461
 31
0.0
  0
LINE
  5
164
330
1F
100
AcDbEntity
  8
0
  6
SLD-Solid
 62
     7
370
    15
100
AcDbLine
 10
24.1082271784
 20
162.1549848905
 30
0.0
 11
30.3080266564
 21
162.1549848905
 31
0.0
  0
SPLINE
  5
165
330
1F
100
AcDbEntity
  8
0
  6
SLD-Solid
 62
     7
370
    15
100
AcDbSpline
210
0.0
220
0.0
230
1.0
 70
     8
 71
     3
 72
    13
 73
     9
 74
     0
 42
0.00000001
 43
0.00000001
 40
0.0
 40
0.0
 40
0.0
 40
0.0
 40
0.1993738876923975
 40
0.3985823012936403
 40
0.6024169907364547
 40
0.8171329536415383
 40
0.9931129486739625
 40
1.0
 40
1.0
 40
1.0
 40
1.0
 10
30.30802665644378
 20
162.1549848904916
 30
0.0
 10
30.30903485255207
 20
162.1011089958982
 30
0.0
 10
30.31105040799739
 20
161.993401922019
 30
0.0
 10
30.32654292772921
 20
161.8493269784437
 30
0.0
 10
30.34919681563825
 20
161.7357639414815
 30
0.0
 10
30.3756749714776
 20
161.6697731728865
 30
0.0
 10
30.39424412915473
 20
161.6551413594066
 30
0.0
 10
30.40261682366714
 20
161.6549931830501
 30
0.0
 10
30.40293215208739
 20
161.654987602503
 30
0.0
  0
LINE
  5
166
330
1F
100
AcDbEntity
  8
0
  6
SLD-Solid
 62
     7
370
    15
100
AcDbLine
 10
30.4029321521
 20
161.6549876025
 30
0.0
 11
24.513322696
 21
161.6549876025
 31
0.0
  0
SPLINE
  5
167
330
1F
100
AcDbEntity
  8
0
  6
SLD-Solid
 62
     7
370
    15
100
AcDbSpline
210
0.0
220
0.0
230
1.0
 70
     8
 71
     3
 72
    13
 73
     9
 74
     0
 42
0.00000001
 43
0.00000001
 40
0.0
 40
0.0
 40
0.0
 40
0.0
 40
0.1993743362741433
 40
0.3985815519216158
 40
0.6024164864387392
 40
0.8171313687590476
 40
0.9931117587380744
 40
1.0
 40
1.0
 40
1.0
 40
1.0
 10
24.10822717838973
 20
162.1549848904916
 30
0.0
 10
24.11231613624864
 20
162.1011091214152
 30
0.0
 10
24.12049062449828
 20
161.9934027432987
 30
0.0
 10
24.18386235883922
 20
161.8493262718908
 30
0.0
 10
24.27835686467478
 20
161.7357644368839
 30
0.0
 10
24.39198683700933
 20
161.6697729034847
 30
0.0
 10
24.47412026969115
 20
161.6551413069356
 30
0.0
 10
24.51189963415082
 20
161.654993182028
 30
0.0
 10
24.51332269602507
 20
161.654987602503
 30
0.0
  0
LINE
  5
168
330
1F
100
AcDbEntity
  8
0
  6
SLD-Solid
 62
     7
370
    15
100
AcDbLine
 10
30.3080266564
 20
162.1549848905
 30
0.0
 11
31.5655132979
 21
162.1549848905
 31
0.0
  0
SPLINE
  5
169
330
1F
100
AcDbEntity
  8
0
  6
SLD-Solid
 62
     7
370
    15
100
AcDbSpline
210
0.0
220
0.0
230
1.0
 70
     8
 71
     3
 72
    13
 73
     9
 74
     0
 42
0.00000001
 43
0.00000001
 40
0.0
 40
0.0
 40
0.0
 40
0.0
 40
0.1993738341209405
 40
0.3985833903986263
 40
0.6024178044651324
 40
0.8171319250002225
 40
0.9931138233641177
 40
1.0
 40
1.0
 40
1.0
 40
1.0
 10
31.56551329785079
 20
162.1549848904916
 30
0.0
 10
31.56198913134311
 20
162.1011089057218
 30
0.0
 10
31.55494370213144
 20
161.9934013283192
 30
0.0
 10
31.5004601375514
 20
161.8493275692698
 30
0.0
 10
31.41975076070652
 20
161.7357642945888
 30
0.0
 10
31.32356376361219
 20
161.669772612858
 30
0.0
 10
31.25472099669663
 20
161.6551414053496
 30
0.0
 10
31.22323105930602
 20
161.6549931840041
 30
0.0
 10
31.2220452576229
 20
161.654987602503
 30
0.0
  0
LINE
  5
16A
330
1F
100
AcDbEntity
  8
0
  6
SLD-Solid
 62
     7
370
    15
100
AcDbLine
 10
31.2220452576
 20
161.6549876025
 30
0.0
 11
30.4029321521
 21
161.6549876025
 31
0.0
  0
LINE
  5
16B
330
1F
100
AcDbEntity
  8
0
  6
SLD-Solid
 62
     7
370
    15
100
AcDbLine
 10
30.3080266564
 20
166.1549855461
 30
0.0
 11
30.3080266564
 21
162.1549848905
 31
0.0
  0
LINE
  5
16C
330
1F
100
AcDbEntity
  8
0
  6
SLD-Solid
 62
     7
370
    15
100
AcDbLine
 10
24.1082271784
 20
162.1549848905
 30
0.0
 11
24.1082271784
 21
166.1549855461
 31
0.0
  0
LINE
  5
16D
330
1F
100
AcDbEntity
  8
0
  6
SLD-Solid
 62
     7
370
    15
100
AcDbLine
 10
31.5655132979
 20
162.1549848905
 30
0.0
 11
31.5655132979
 21
166.1549855461
 31
0.0
  0
ARC
  5
16E
330
1F
100
AcDbEntity
  8
0
  6
SLD-Solid
 62
     7
370
    15
100
AcDbCircle
 10
13.9991361235
 20
174.1977648235
 30
0.0
 40
0.460253418528786
100
AcDbArc
 50
96.5805045396
 51
185.3330176095
  0
ARC
  5
16F
330
1F
100
AcDbEntity
  8
0
  6
SLD-Solid
 62
     7
370
    15
100
AcDbCircle
 10
-26.2860376685
 20
227.2105303212
 30
0.0
 40
0.7202418881284541
100
AcDbArc
 50
200.4264413209
 51
245.1309951862
  0
SPLINE
  5
170
330
1F
100
AcDbEntity
  8
0
  6
SLD-Solid
 62
     7
370
    15
100
AcDbSpline
210
0.0
220
0.0
230
1.0
 70
     8
 71
     3
 72
    13
 73
     9
 74
     0
 42
0.00000001
 43
0.00000001
 40
0.0
 40
0.0
 40
0.0
 40
0.0
 40
0.0589652190346622
 40
0.3834878808950932
 40
0.8530724551474812
 40
0.8601224792464481
 40
0.9937763304241963
 40
1.0
 40
1.0
 40
1.0
 40
1.0
 10
-26.58893184370306
 20
226.5570752760478
 30
0.0
 10
-26.60975193038431
 20
226.5498854801687
 30
0.0
 10
-26.74515804015806
 20
226.5031257185518
 30
0.0
 10
-27.04407492133396
 20
226.3871866289603
 30
0.0
 10
-27.30967699174328
 20
226.2775588650342
 30
0.0
 10
-27.49542274032418
 20
226.1947387259088
 30
0.0
 10
-27.53901393740138
 20
226.1747934550669
 30
0.0
 10
-27.57929610584861
 20
226.1558298296949
 30
0.0
 10
-27.58108840889245
 20
226.1549860676834
 30
0.0
  0
LINE
  5
171
330
1F
100
AcDbEntity
  8
0
  6
SLD-Solid
 62
     7
370
    15
100
AcDbLine
 10
-26.5889318437
 20
226.1549860677
 30
0.0
 11
-27.5810884089
 21
226.1549860677
 31
0.0
  0
LINE
  5
172
330
1F
100
AcDbEntity
  8
0
  6
SLD-Solid
 62
     7
370
    15
100
AcDbLine
 10
-26.5889318437
 20
226.1549860677
 30
0.0
 11
-26.5889318437
 21
216.3414333453
 31
0.0
  0
SPLINE
  5
173
330
1F
100
AcDbEntity
  8
0
  6
SLD-Solid
 62
     7
370
    15
100
AcDbSpline
210
0.0
220
0.0
230
1.0
 70
     8
 71
     3
 72
    11
 73
     7
 74
     0
 42
0.00000001
 43
0.00000001
 40
0.0
 40
0.0
 40
0.0
 40
0.0
 40
0.0062243045682375
 40
0.1469271510777499
 40
0.6165217631849228
 40
1.0
 40
1.0
 40
1.0
 40
1.0
 10
-27.58108840889242
 20
173.1549866935321
 30
0.0
 10
-27.57929609881218
 20
173.1541422576286
 30
0.0
 10
-27.53698791625914
 20
173.1342090168594
 30
0.0
 10
-27.35387265904374
 20
173.0508249581837
 30
0.0
 10
-27.02476356169378
 20
172.9126019176026
 30
0.0
 10
-26.7240916286007
 20
172.8024248964231
 30
0.0
 10
-26.58893184370306
 20
172.7528974851676
 30
0.0
  0
ARC
  5
174
330
1F
100
AcDbEntity
  8
0
  6
SLD-Solid
 62
     7
370
    15
100
AcDbCircle
 10
-26.2860410129
 20
172.0994466991
 30
0.0
 40
0.7202366175032582
100
AcDbArc
 50
114.8689059185
 51
159.5739221954
  0
LINE
  5
175
330
1F
100
AcDbEntity
  8
0
  6
SLD-Solid
 62
     7
370
    15
100
AcDbLine
 10
-26.5889318437
 20
182.9685394159
 30
0.0
 11
-26.5889318437
 21
173.1549866935
 31
0.0
  0
LINE
  5
176
330
1F
100
AcDbEntity
  8
0
  6
SLD-Solid
 62
     7
370
    15
100
AcDbLine
 10
-27.5810884089
 20
173.1549866935
 30
0.0
 11
-26.5889318437
 21
173.1549866935
 31
0.0
  0
LINE
  5
177
330
1F
100
AcDbEntity
  8
0
  6
SLD-Solid
 62
     7
370
    15
100
AcDbLine
 10
-26.5889318437
 20
226.557075276
 30
0.0
 11
-26.5889318437
 21
226.1549860677
 31
0.0
  0
LINE
  5
178
330
1F
100
AcDbEntity
  8
0
  6
SLD-Solid
 62
     7
370
    15
100
AcDbLine
 10
-26.5889318437
 20
172.7528974852
 30
0.0
 11
-26.5889318437
 21
173.1549866935
 31
0.0
  0
LINE
  5
179
330
1F
100
AcDbEntity
  8
0
  6
SLD-Solid
 62
     7
370
    15
100
AcDbLine
 10
1.50518848
 20
216.3414333453
 30
0.0
 11
1.50518848
 21
226.1549860677
 31
0.0
  0
LINE
  5
17A
330
1F
100
AcDbEntity
  8
0
  6
SLD-Solid
 62
     7
370
    15
100
AcDbLine
 10
2.4973450451
 20
226.1549860677
 30
0.0
 11
1.50518848
 21
226.1549860677
 31
0.0
  0
LINE
  5
17B
330
1F
100
AcDbEntity
  8
0
  6
SLD-Solid
 62
     7
370
    15
100
AcDbLine
 10
1.50518848
 20
172.7528974852
 30
0.0
 11
1.50518848
 21
173.1549866935
 31
0.0
  0
LINE
  5
17C
330
1F
100
AcDbEntity
  8
0
  6
SLD-Solid
 62
     7
370
    15
100
AcDbLine
 10
1.50518848
 20
173.1549866935
 30
0.0
 11
2.4973450451
 21
173.1549866935
 31
0.0
  0
SPLINE
  5
17D
330
1F
100
AcDbEntity
  8
0
  6
SLD-Solid
 62
     7
370
    15
100
AcDbSpline
210
0.0
220
0.0
230
1.0
 70
     8
 71
     3
 72
    13
 73
     9
 74
     0
 42
0.00000001
 43
0.00000001
 40
0.0
 40
0.0
 40
0.0
 40
0.0
 40
0.0589652378171277
 40
0.3834822772612694
 40
0.8530724085472967
 40
0.8601219259702382
 40
0.9937758197213693
 40
0.9999999999999999
 40
0.9999999999999999
 40
0.9999999999999999
 40
0.9999999999999999
 10
1.505188479954928
 20
172.7528974851676
 30
0.0
 10
1.526008565851361
 20
172.7600873245842
 30
0.0
 10
1.66141264879785
 20
172.8068466711869
 30
0.0
 10
1.960329662864441
 20
172.9227738801976
 30
0.0
 10
2.225921415324628
 20
173.0324501839222
 30
0.0
 10
2.411682387368858
 20
173.1152220683884
 30
0.0
 10
2.455273777264289
 20
173.1351659979056
 30
0.0
 10
2.495552744559482
 20
173.1541423014766
 30
0.0
 10
2.497345045144289
 20
173.1549866935321
 30
0.0
  0
SPLINE
  5
17E
330
1F
100
AcDbEntity
  8
0
  6
SLD-Solid
 62
     7
370
    15
100
AcDbSpline
210
0.0
220
0.0
230
1.0
 70
     8
 71
     3
 72
    11
 73
     7
 74
     0
 42
0.00000001
 43
0.00000001
 40
0.0
 40
0.0
 40
0.0
 40
0.0
 40
0.0062237981110653
 40
0.1469272049800225
 40
0.6165263737498199
 40
1.0
 40
1.0
 40
1.0
 40
1.0
 10
2.497345045144261
 20
226.1549860676834
 30
0.0
 10
2.495552731395318
 20
226.1558298695437
 30
0.0
 10
2.453241003912365
 20
226.1757497716184
 30
0.0
 10
2.270134394498275
 20
226.2591707455118
 30
0.0
 10
1.941012393338604
 20
226.3973591746595
 30
0.0
 10
1.640344729325727
 20
226.5075446547008
 30
0.0
 10
1.5051884799549
 20
226.5570752760478
 30
0.0
  0
LINE
  5
17F
330
1F
100
AcDbEntity
  8
0
  6
SLD-Solid
 62
     7
370
    15
100
AcDbLine
 10
1.50518848
 20
226.557075276
 30
0.0
 11
1.50518848
 21
226.1549860677
 31
0.0
  0
ARC
  5
180
330
1F
100
AcDbEntity
  8
0
  6
SLD-Solid
 62
     7
370
    15
100
AcDbCircle
 10
1.2022976492
 20
172.0994466991
 30
0.0
 40
0.7202366175032555
100
AcDbArc
 50
20.4260778046
 51
65.1310940815
  0
ARC
  5
181
330
1F
100
AcDbEntity
  8
0
  6
SLD-Solid
 62
     7
370
    15
100
AcDbCircle
 10
1.2022943047
 20
227.2105303212
 30
0.0
 40
0.7202418881284567
100
AcDbArc
 50
294.8690048138
 51
339.5735586791
  0
LINE
  5
182
330
1F
100
AcDbEntity
  8
0
  6
SLD-Solid
 62
     7
370
    15
100
AcDbLine
 10
1.50518848
 20
173.1549866935
 30
0.0
 11
1.50518848
 21
182.9685394159
 31
0.0
  0
LINE
  5
183
330
1F
100
AcDbEntity
  8
0
  6
SLD-Solid
 62
     7
370
    15
100
AcDbLine
 10
34.622412011
 20
161.6549876025
 30
0.0
 11
31.2220452576
 21
161.6549876025
 31
0.0
  0
LINE
  5
184
330
1F
100
AcDbEntity
  8
0
  6
SLD-Solid
 62
     7
370
    15
100
AcDbLine
 10
31.5655132979
 20
162.1549848905
 30
0.0
 11
35.144969657
 21
162.1549848905
 31
0.0
  0
SPLINE
  5
185
330
1F
100
AcDbEntity
  8
0
  6
SLD-Solid
 62
     7
370
    15
100
AcDbSpline
210
0.0
220
0.0
230
1.0
 70
     8
 71
     3
 72
    13
 73
     9
 74
     0
 42
0.00000001
 43
0.00000001
 40
0.0
 40
0.0
 40
0.0
 40
0.0
 40
0.0068879599497873
 40
0.1828665656558446
 40
0.3975840674359918
 40
0.6014176759078664
 40
0.8006259658552399
 40
1.0
 40
1.0
 40
1.0
 40
1.0
 10
34.62241201096267
 20
161.654987602503
 30
0.0
 10
34.62423736199089
 20
161.6549931820834
 30
0.0
 10
34.67269810741869
 20
161.6551413128371
 30
0.0
 10
34.7782497808245
 20
161.6697736988166
 30
0.0
 10
34.92475235507808
 20
161.7357631287258
 30
0.0
 10
35.046939555891
 20
161.8493274020107
 30
0.0
 10
35.12906533544103
 20
161.99340199389
 30
0.0
 10
35.13966674700275
 20
162.1011089955363
 30
0.0
 10
35.14496965699882
 20
162.1549848904916
 30
0.0
  0
LINE
  5
186
330
1F
100
AcDbEntity
  8
0
  6
SLD-Solid
 62
     7
370
    15
100
AcDbLine
 10
35.144969657
 20
166.1549855461
 30
0.0
 11
35.144969657
 21
162.1549848905
 31
0.0
  0
SPLINE
  5
187
330
1F
100
AcDbEntity
  8
0
  6
SLD-Solid
 62
     7
370
    15
100
AcDbSpline
210
0.0
220
0.0
230
1.0
 70
     8
 71
     3
 72
     9
 73
     5
 74
     0
 42
0.00000001
 43
0.00000001
 40
0.0
 40
0.0
 40
0.0
 40
0.0
 40
0.6373933295959795
 40
1.0
 40
1.0
 40
1.0
 40
1.0
 10
-26.10467390722543
 20
226.6549852183172
 30
0.0
 10
-26.20806071660573
 20
226.6480669528602
 30
0.0
 10
-26.37026324458921
 20
226.6372129555939
 30
0.0
 10
-26.53074139566789
 20
226.5784009144622
 30
0.0
 10
-26.58893184370306
 20
226.5570752760478
 30
0.0
  0
LINE
  5
188
330
1F
100
AcDbEntity
  8
0
  6
SLD-Solid
 62
     7
370
    15
100
AcDbLine
 10
-26.1046739072
 20
226.6549852183
 30
0.0
 11
-19.0418736786
 21
226.6549852183
 31
0.0
  0
LINE
  5
189
330
1F
100
AcDbEntity
  8
0
  6
SLD-Solid
 62
     7
370
    15
100
AcDbLine
 10
-6.0418696851
 20
226.6549852183
 30
0.0
 11
1.0209305435
 21
226.6549852183
 31
0.0
  0
SPLINE
  5
18A
330
1F
100
AcDbEntity
  8
0
  6
SLD-Solid
 62
     7
370
    15
100
AcDbSpline
210
0.0
220
0.0
230
1.0
 70
     8
 71
     3
 72
     9
 73
     5
 74
     0
 42
0.00000001
 43
0.00000001
 40
0.0
 40
0.0
 40
0.0
 40
0.0
 40
0.6364210583302856
 40
1.0
 40
1.0
 40
1.0
 40
1.0
 10
1.505188479954928
 20
226.5570752760478
 30
0.0
 10
1.402298663484319
 20
226.5917586173062
 30
0.0
 10
1.240629254334741
 20
226.6462560931587
 30
0.0
 10
1.079510081734097
 20
226.6526577211772
 30
0.0
 10
1.020930543477266
 20
226.6549852183172
 30
0.0
  0
SPLINE
  5
18B
330
1F
100
AcDbEntity
  8
0
  6
SLD-Solid
 62
     7
370
    15
100
AcDbSpline
210
0.0
220
0.0
230
1.0
 70
     8
 71
     3
 72
     9
 73
     5
 74
     0
 42
0.00000001
 43
0.00000001
 40
0.0
 40
0.0
 40
0.0
 40
0.0
 40
0.6373927655309863
 40
1.0
 40
1.0
 40
1.0
 40
1.0
 10
1.020930543477266
 20
172.6549856802532
 30
0.0
 10
1.12431743231256
 20
172.6619036299188
 30
0.0
 10
1.286520228494542
 20
172.672757141348
 30
0.0
 10
1.44699805800319
 20
172.7315711134101
 30
0.0
 10
1.505188479954928
 20
172.7528974851676
 30
0.0
  0
LINE
  5
18C
330
1F
100
AcDbEntity
  8
0
  6
SLD-Solid
 62
     7
370
    15
100
AcDbLine
 10
1.0209305435
 20
172.6549856803
 30
0.0
 11
-6.0418696851
 21
172.6549856803
 31
0.0
  0
LINE
  5
18D
330
1F
100
AcDbEntity
  8
0
  6
SLD-Solid
 62
     7
370
    15
100
AcDbLine
 10
-19.0418736786
 20
172.6549856803
 30
0.0
 11
-26.1046739072
 21
172.6549856803
 31
0.0
  0
SPLINE
  5
18E
330
1F
100
AcDbEntity
  8
0
  6
SLD-Solid
 62
     7
370
    15
100
AcDbSpline
210
0.0
220
0.0
230
1.0
 70
     8
 71
     3
 72
     9
 73
     5
 74
     0
 42
0.00000001
 43
0.00000001
 40
0.0
 40
0.0
 40
0.0
 40
0.0
 40
0.6364209283884813
 40
1.0
 40
1.0
 40
1.0
 40
1.0
 10
-26.58893184370306
 20
172.7528974851676
 30
0.0
 10
-26.48604200891644
 20
172.7182144896791
 30
0.0
 10
-26.32437253797806
 20
172.6637175460033
 30
0.0
 10
-26.16325343947726
 20
172.6573139087431
 30
0.0
 10
-26.10467390722543
 20
172.6549856802532
 30
0.0
  0
ARC
  5
18F
330
1F
100
AcDbEntity
  8
0
  6
SLD-Solid
 62
     7
370
    15
100
AcDbCircle
 10
-26.0499141739
 20
172.1990589341
 30
0.0
 40
0.4592034693314866
100
AcDbArc
 50
96.8487847067
 51
185.5074836957
  0
ARC
  5
190
330
1F
100
AcDbEntity
  8
0
  6
SLD-Solid
 62
     7
370
    15
100
AcDbCircle
 10
-26.0499111921
 20
227.1109145279
 30
0.0
 40
0.4592063700777382
100
AcDbArc
 50
174.4926390485
 51
263.15088405
  0
ARC
  5
191
330
1F
100
AcDbEntity
  8
0
  6
SLD-Solid
 62
     7
370
    15
100
AcDbCircle
 10
0.9661678283
 20
227.1109145279
 30
0.0
 40
0.4592063700777368
100
AcDbArc
 50
276.84911595
 51
5.5073609515
  0
ARC
  5
192
330
1F
100
AcDbEntity
  8
0
  6
SLD-Solid
 62
     7
370
    15
100
AcDbCircle
 10
0.9661708101
 20
172.1990589341
 30
0.0
 40
0.4592034693315078
100
AcDbArc
 50
354.4925163043
 51
83.1512152933
  0
LINE
  5
193
330
1F
100
AcDbEntity
  8
0
  6
SLD-Solid
 62
     7
370
    15
100
AcDbLine
 10
-36.5418718905
 20
233.6549845031
 30
0.0
 11
-28.5418705792
 21
233.6549845031
 31
0.0
  0
LINE
  5
194
330
1F
100
AcDbEntity
  8
0
  6
SLD-Solid
 62
     7
370
    15
100
AcDbLine
 10
-32.5418712348
 20
165.6549845329
 30
0.0
 11
-36.5418718905
 21
165.6549845329
 31
0.0
  0
LINE
  5
195
330
1F
100
AcDbEntity
  8
0
  6
SLD-Solid
 62
     7
370
    15
100
AcDbLine
 10
-28.5418705792
 20
165.6549845329
 30
0.0
 11
-32.5418712348
 21
165.6549845329
 31
0.0
  0
LINE
  5
196
330
1F
100
AcDbEntity
  8
0
  6
SLD-Solid
 62
     7
370
    15
100
AcDbLine
 10
7.4581278711
 20
165.6549845329
 30
0.0
 11
3.4581272154
 21
165.6549845329
 31
0.0
  0
LINE
  5
197
330
1F
100
AcDbEntity
  8
0
  6
SLD-Solid
 62
     7
370
    15
100
AcDbLine
 10
11.4581285267
 20
165.6549845329
 30
0.0
 11
7.4581278711
 21
165.6549845329
 31
0.0
  0
LINE
  5
198
330
1F
100
AcDbEntity
  8
0
  6
SLD-Solid
 62
     7
370
    15
100
AcDbLine
 10
3.4581272154
 20
233.6549845031
 30
0.0
 11
11.4581285267
 21
233.6549845031
 31
0.0
  0
LINE
  5
199
330
1F
100
AcDbEntity
  8
0
  6
SLD-Solid
 62
     7
370
    15
100
AcDbLine
 10
23.7712858468
 20
162.1549848905
 30
0.0
 11
24.1082271784
 21
162.1549848905
 31
0.0
  0
SPLINE
  5
19A
330
1F
100
AcDbEntity
  8
0
  6
SLD-Solid
 62
     7
370
    15
100
AcDbSpline
210
0.0
220
0.0
230
1.0
 70
     8
 71
     3
 72
    13
 73
     9
 74
     0
 42
0.00000001
 43
0.00000001
 40
0.0
 40
0.0
 40
0.0
 40
0.0
 40
0.1993740302257074
 40
0.3985823208159122
 40
0.6024159299455437
 40
0.817133409035244
 40
0.9931120400279858
 40
1.0
 40
1.0
 40
1.0
 40
1.0
 10
23.77128584676474
 20
162.1549848904916
 30
0.0
 10
23.77658875673931
 20
162.1011089953007
 30
0.0
 10
23.78719016837928
 20
161.9934019919517
 30
0.0
 10
23.86931595026746
 20
161.8493274016372
 30
0.0
 10
23.99150313460763
 20
161.7357631355025
 30
0.0
 10
24.13800575153805
 20
161.669773691229
 30
0.0
 10
24.24355738957729
 20
161.6551413129158
 30
0.0
 10
24.29201814176482
 20
161.6549931820855
 30
0.0
 10
24.29384349280089
 20
161.654987602503
 30
0.0
  0
LINE
  5
19B
330
1F
100
AcDbEntity
  8
0
  6
SLD-Solid
 62
     7
370
    15
100
AcDbLine
 10
24.513322696
 20
161.6549876025
 30
0.0
 11
24.2938434928
 21
161.6549876025
 31
0.0
  0
LINE
  5
19C
330
1F
100
AcDbEntity
  8
0
  6
SLD-Solid
 62
     7
370
    15
100
AcDbLine
 10
23.7712858468
 20
166.1549855461
 30
0.0
 11
23.7712858468
 21
162.1549848905
 31
0.0
  0
LINE
  5
19D
330
1F
100
AcDbEntity
  8
0
  6
SLD-Solid
 62
     7
370
    15
100
AcDbLine
 10
-69.5418717117
 20
227.6549853822
 30
0.0
 11
-70.5418737382
 21
227.6549853822
 31
0.0
  0
LINE
  5
19E
330
1F
100
AcDbEntity
  8
0
  6
SLD-Solid
 62
     7
370
    15
100
AcDbLine
 10
-70.5418737382
 20
227.6549853822
 30
0.0
 11
-70.5418737382
 21
230.1549848607
 31
0.0
  0
LINE
  5
19F
330
1F
100
AcDbEntity
  8
0
  6
SLD-Solid
 62
     7
370
    15
100
AcDbLine
 10
-69.5418717117
 20
230.1549848607
 30
0.0
 11
-70.5418737382
 21
230.1549848607
 31
0.0
  0
LINE
  5
1A0
330
1F
100
AcDbEntity
  8
0
  6
SLD-Solid
 62
     7
370
    15
100
AcDbLine
 10
-69.5418717117
 20
230.1549848607
 30
0.0
 11
-69.5418717117
 21
227.6549853822
 31
0.0
  0
ARC
  5
1A1
330
1F
100
AcDbEntity
  8
0
  6
SLD-Solid
 62
     7
370
    15
100
AcDbCircle
 10
-70.0418727016
 20
230.1549861368
 30
0.0
 40
0.5
100
AcDbArc
 50
90.0
 51
180.0
  0
LINE
  5
1A2
330
1F
100
AcDbEntity
  8
0
  6
SLD-Solid
 62
     7
370
    15
100
AcDbLine
 10
-70.0418652744
 20
230.654985874
 30
0.0
 11
-69.5418717117
 21
230.654985874
 31
0.0
  0
LINE
  5
1A3
330
1F
100
AcDbEntity
  8
0
  6
SLD-Solid
 62
     7
370
    15
100
AcDbLine
 10
-69.5418717117
 20
230.1549848607
 30
0.0
 11
-69.5418717117
 21
230.654985874
 31
0.0
  0
LINE
  5
1A4
330
1F
100
AcDbEntity
  8
0
  6
SLD-Solid
 62
     7
370
    15
100
AcDbLine
 10
-41.5418745727
 20
230.654985874
 30
0.0
 11
177.4581296592
 21
230.654985874
 31
0.0
  0
LINE
  5
1A5
330
1F
100
AcDbEntity
  8
0
  6
SLD-Solid
 62
     7
370
    15
100
AcDbLine
 10
177.4581296592
 20
230.654985874
 30
0.0
 11
196.9581244736
 21
230.654985874
 31
0.0
  0
LINE
  5
1A6
330
1F
100
AcDbEntity
  8
0
  6
SLD-Solid
 62
     7
370
    15
100
AcDbLine
 10
196.9581244736
 20
230.654985874
 30
0.0
 11
203.4581301957
 21
230.654985874
 31
0.0
  0
LINE
  5
1A7
330
1F
100
AcDbEntity
  8
0
  6
SLD-Solid
 62
     7
370
    15
100
AcDbLine
 10
203.4581301957
 20
230.1549848607
 30
0.0
 11
203.4581301957
 21
230.654985874
 31
0.0
  0
LINE
  5
1A8
330
1F
100
AcDbEntity
  8
0
  6
SLD-Solid
 62
     7
370
    15
100
AcDbLine
 10
203.4581301957
 20
230.1549848607
 30
0.0
 11
-69.5418717117
 21
230.1549848607
 31
0.0
  0
LINE
  5
1A9
330
1F
100
AcDbEntity
  8
0
  6
SLD-Solid
 62
     7
370
    15
100
AcDbLine
 10
-69.5418717117
 20
230.654985874
 30
0.0
 11
-63.0418659896
 21
230.654985874
 31
0.0
  0
LINE
  5
1AA
330
1F
100
AcDbEntity
  8
0
  6
SLD-Solid
 62
     7
370
    15
100
AcDbLine
 10
-63.0418659896
 20
230.654985874
 30
0.0
 11
-41.5418745727
 21
230.654985874
 31
0.0
  0
LINE
  5
1AB
330
1F
100
AcDbEntity
  8
0
  6
SLD-Solid
 62
     7
370
    15
100
AcDbLine
 10
203.4581301957
 20
227.6549853822
 30
0.0
 11
203.4581301957
 21
230.1549848607
 31
0.0
  0
LINE
  5
1AC
330
1F
100
AcDbEntity
  8
0
  6
SLD-Solid
 62
     7
370
    15
100
AcDbLine
 10
-69.5418717117
 20
227.6549853822
 30
0.0
 11
203.4581301957
 21
227.6549853822
 31
0.0
  0
LINE
  5
1AD
330
1F
100
AcDbEntity
  8
0
  6
SLD-Solid
 62
     7
370
    15
100
AcDbLine
 10
204.4581322222
 20
230.1549848607
 30
0.0
 11
203.4581301957
 21
230.1549848607
 31
0.0
  0
LINE
  5
1AE
330
1F
100
AcDbEntity
  8
0
  6
SLD-Solid
 62
     7
370
    15
100
AcDbLine
 10
204.4581322222
 20
230.1549848607
 30
0.0
 11
204.4581322222
 21
227.6549853822
 31
0.0
  0
LINE
  5
1AF
330
1F
100
AcDbEntity
  8
0
  6
SLD-Solid
 62
     7
370
    15
100
AcDbLine
 10
204.4581322222
 20
227.6549853822
 30
0.0
 11
203.4581301957
 21
227.6549853822
 31
0.0
  0
LINE
  5
1B0
330
1F
100
AcDbEntity
  8
0
  6
SLD-Solid
 62
     7
370
    15
100
AcDbLine
 10
203.4581301957
 20
230.654985874
 30
0.0
 11
203.9581237584
 21
230.654985874
 31
0.0
  0
ARC
  5
1B1
330
1F
100
AcDbEntity
  8
0
  6
SLD-Solid
 62
     7
370
    15
100
AcDbCircle
 10
203.9581272984
 20
230.1549861368
 30
0.0
 40
0.5
100
AcDbArc
 50
0.0
 51
90.0
  0
LINE
  5
1B2
330
1F
100
AcDbEntity
  8
0
  6
SLD-Solid
 62
     8
370
    15
100
AcDbLine
 10
17.9581267982
 20
233.1549872151
 30
0.0
 11
26.1040253788
 21
233.1549872151
 31
0.0
  0
LINE
  5
1B3
330
1F
100
AcDbEntity
  8
0
  6
SLD-Solid
 62
     8
370
    15
100
AcDbLine
 10
26.1040253788
 20
237.1549878707
 30
0.0
 11
17.9581267982
 21
237.1549878707
 31
0.0
  0
LINE
  5
1B4
330
1F
100
AcDbEntity
  8
0
  6
SLD-Solid
 62
     8
370
    15
100
AcDbLine
 10
319.8122231513
 20
233.1549872151
 30
0.0
 11
327.958136633
 21
233.1549872151
 31
0.0
  0
LINE
  5
1B5
330
1F
100
AcDbEntity
  8
0
  6
SLD-Solid
 62
     8
370
    15
100
AcDbLine
 10
327.958136633
 20
237.1549878707
 30
0.0
 11
319.8122231513
 21
237.1549878707
 31
0.0
  0
LINE
  5
1B6
330
1F
100
AcDbEntity
  8
0
  6
SLD-Solid
 62
     8
370
    15
100
AcDbLine
 10
140.4581291824
 20
213.6697976356
 30
0.0
 11
141.8111546188
 21
213.6697976356
 31
0.0
  0
LINE
  5
1B7
330
1F
100
AcDbEntity
  8
0
  6
SLD-Solid
 62
     8
370
    15
100
AcDbLine
 10
155.105098918
 20
213.6697976356
 30
0.0
 11
156.4581243544
 21
213.6697976356
 31
0.0
  0
LINE
  5
1B8
330
1F
100
AcDbEntity
  8
0
  6
SLD-Solid
 62
     8
370
    15
100
AcDbLine
 10
-20.5418692679
 20
213.6697976356
 30
0.0
 11
-19.1888438315
 21
213.6697976356
 31
0.0
  0
LINE
  5
1B9
330
1F
100
AcDbEntity
  8
0
  6
SLD-Solid
 62
     8
370
    15
100
AcDbLine
 10
-5.8948995323
 20
213.6697976356
 30
0.0
 11
-4.5418740959
 21
213.6697976356
 31
0.0
  0
LINE
  5
1BA
330
1F
100
AcDbEntity
  8
0
  6
SLD-Solid
 62
     8
370
    15
100
AcDbLine
 10
1.50518848
 20
214.9508960983
 30
0.0
 11
-6.0418696851
 21
214.9508960983
 31
0.0
  0
LINE
  5
1BB
330
1F
100
AcDbEntity
  8
0
  6
SLD-Solid
 62
     8
370
    15
100
AcDbLine
 10
-19.0418736786
 20
214.9508960983
 30
0.0
 11
-26.5889318437
 21
214.9508960983
 31
0.0
  0
SPLINE
  5
1BC
330
1F
100
AcDbEntity
  8
0
  6
SLD-Solid
 62
     8
370
    15
100
AcDbSpline
210
0.0
220
0.0
230
1.0
 70
     8
 71
     3
 72
    25
 73
    21
 74
     0
 42
0.00000001
 43
0.00000001
 40
0.0
 40
0.0
 40
0.0
 40
0.0
 40
0.0117949060028741
 40
0.0514999582550801
 40
0.0891803646927512
 40
0.1278177269095529
 40
0.1808217631575219
 40
0.235380633956678
 40
0.3088396881803573
 40
0.3843074421359003
 40
0.4712133522837252
 40
0.520041788842909
 40
0.5559200326179626
 40
0.592070033286707
 40
0.6462844691232981
 40
0.7207147084946888
 40
0.7970795107822244
 40
0.8717756345215084
 40
0.9490516646782263
 40
1.0
 40
1.0
 40
1.0
 40
1.0
 10
46.67766003304214
 20
216.1282238056966
 30
0.0
 10
46.68235919746222
 20
216.1323516141821
 30
0.0
 10
46.70287710336238
 20
216.1503748154384
 30
0.0
 10
46.46166113253193
 20
215.9384892236467
 30
0.0
 10
45.97155006149839
 20
215.5088240727676
 30
0.0
 10
45.1664679709305
 20
214.8052786831627
 30
0.0
 10
43.99583002198148
 20
213.7879213908379
 30
0.0
 10
42.25760982165203
 20
212.2938312689265
 30
0.0
 10
40.01910507188615
 20
210.4054653186965
 30
0.0
 10
37.14591286804431
 20
208.0937601489522
 30
0.0
 10
34.32414148495706
 20
206.0355001954404
 30
0.0
 10
31.72801817055729
 20
204.7045466282028
 30
0.0
 10
29.67942203971832
 20
204.2640938222579
 30
0.0
 10
27.5025631188105
 20
204.5634074677669
 30
0.0
 10
24.9715498581989
 20
205.8110181230036
 30
0.0
 10
22.19818073310806
 20
207.7660440759071
 30
0.0
 10
19.39973483998342
 20
209.9908445971023
 30
0.0
 10
16.84235665636172
 20
212.1342102303571
 30
0.0
 10
14.84130269635145
 20
213.8556342863869
 30
0.0
 10
13.90734731532131
 20
214.6690193878955
 30
0.0
 10
13.53625191741675
 20
214.9922077050516
 30
0.0
  0
LINE
  5
1BD
330
1F
100
AcDbEntity
  8
0
  6
SLD-Solid
 62
     8
370
    15
100
AcDbLine
 10
168.4581263214
 20
203.6861150963
 30
0.0
 11
168.4581263214
 21
216.1549862912
 31
0.0
  0
SPLINE
  5
1BE
330
1F
100
AcDbEntity
  8
0
  6
SLD-Solid
 62
     8
370
    15
100
AcDbSpline
210
0.0
220
0.0
230
1.0
 70
     8
 71
     3
 72
    28
 73
    24
 74
     0
 42
0.00000001
 43
0.00000001
 40
0.0
 40
0.0
 40
0.0
 40
0.0
 40
0.0256284054626161
 40
0.0816415072130381
 40
0.139272066415288
 40
0.2165918951600699
 40
0.2960225967122784
 40
0.3609719625326515
 40
0.4097247147424604
 40
0.4438635360690232
 40
0.4778920534981542
 40
0.5092692897829375
 40
0.5412832031429496
 40
0.6150038072231473
 40
0.6904342923078326
 40
0.7521623529637314
 40
0.8153753495346576
 40
0.860795356484268
 40
0.9074079168889565
 40
0.9441532331065139
 40
0.9819108237528843
 40
0.999220089142755
 40
1.0
 40
1.0
 40
1.0
 40
1.0
 10
13.53625191741675
 20
184.3177641248413
 30
0.0
 10
13.71592603137456
 20
184.4743560632754
 30
0.0
 10
14.28829349653268
 20
184.973193257412
 30
0.0
 10
15.51383735405426
 20
186.0345740332759
 30
0.0
 10
17.45830472723706
 20
187.6958452354997
 30
0.0
 10
19.93070640548738
 20
189.754766151027
 30
0.0
 10
22.74426392614096
 20
191.9557914985047
 30
0.0
 10
25.42642460977869
 20
193.7593620082023
 30
0.0
 10
27.74946723330375
 20
194.8078534397345
 30
0.0
 10
29.78038328381004
 20
195.0293658391074
 30
0.0
 10
31.47007119421691
 20
194.6542237082373
 30
0.0
 10
32.98574235271973
 20
193.9724443948213
 30
0.0
 10
34.97664952412262
 20
192.7980517418262
 30
0.0
 10
37.3886794018472
 20
191.0252930575202
 30
0.0
 10
39.96351700110763
 20
188.9471007877259
 30
0.0
 10
42.18599595151261
 20
187.0775280099399
 30
0.0
 10
43.85292197401716
 20
185.6454851246055
 30
0.0
 10
45.11979675849978
 20
184.545472942108
 30
0.0
 10
45.94161193220224
 20
183.8274001966002
 30
0.0
 10
46.47090056153031
 20
183.363353432551
 30
0.0
 10
46.66940315984658
 20
183.1890066369803
 30
0.0
 10
46.71381532836272
 20
183.1499864717913
 30
0.0
 10
46.70757137463916
 20
183.1554744269956
 30
0.0
 10
46.707302167947
 20
183.1557110389778
 30
0.0
  0
LINE
  5
1BF
330
1F
100
AcDbEntity
  8
0
  6
SLD-Solid
 62
     8
370
    15
100
AcDbLine
 10
-26.5889318437
 20
184.3590766629
 30
0.0
 11
-19.0418736786
 21
184.3590766629
 31
0.0
  0
LINE
  5
1C0
330
1F
100
AcDbEntity
  8
0
  6
SLD-Solid
 62
     8
370
    15
100
AcDbLine
 10
-6.0418696851
 20
184.3590766629
 30
0.0
 11
1.50518848
 21
184.3590766629
 31
0.0
  0
LINE
  5
1C1
330
1F
100
AcDbEntity
  8
0
  6
SLD-Solid
 62
     8
370
    15
100
AcDbLine
 10
-4.5418740959
 20
185.6401751256
 30
0.0
 11
-5.8948995323
 21
185.6401751256
 31
0.0
  0
LINE
  5
1C2
330
1F
100
AcDbEntity
  8
0
  6
SLD-Solid
 62
     8
370
    15
100
AcDbLine
 10
-19.1888438315
 20
185.6401751256
 30
0.0
 11
-20.5418692679
 21
185.6401751256
 31
0.0
  0
LINE
  5
1C3
330
1F
100
AcDbEntity
  8
0
  6
SLD-Solid
 62
     8
370
    15
100
AcDbLine
 10
156.4581243544
 20
185.6401751256
 30
0.0
 11
155.105098918
 21
185.6401751256
 31
0.0
  0
LINE
  5
1C4
330
1F
100
AcDbEntity
  8
0
  6
SLD-Solid
 62
     8
370
    15
100
AcDbLine
 10
141.8111546188
 20
185.6401751256
 30
0.0
 11
140.4581291824
 21
185.6401751256
 31
0.0
  0
SPLINE
  5
1C5
330
1F
100
AcDbEntity
  8
0
  6
SLD-Solid
 62
     8
370
    15
100
AcDbSpline
210
0.0
220
0.0
230
1.0
 70
     8
 71
     3
 72
    26
 73
    22
 74
     0
 42
0.00000001
 43
0.00000001
 40
0.0
 40
0.0
 40
0.0
 40
0.0
 40
0.0517410806042616
 40
0.1231438987911474
 40
0.1971289866160493
 40
0.2057483417033296
 40
0.2803081097628212
 40
0.356560912775999
 40
0.4088553112721878
 40
0.4426473584099681
 40
0.4763423205154394
 40
0.5236341187560268
 40
0.6101578011820837
 40
0.6844804314997897
 40
0.7606025890850425
 40
0.8144919788856275
 40
0.8697714335156864
 40
0.9080937842849885
 40
0.9473188267324946
 40
0.9863598519557942
 40
0.9999999999999999
 40
0.9999999999999999
 40
0.9999999999999999
 40
0.9999999999999999
 10
14.92076350742072
 20
216.3865019073793
 30
0.0
 10
15.25935749304096
 20
216.0341663362182
 30
0.0
 10
16.06521200959844
 20
215.1956068123569
 30
0.0
 10
17.79355115840628
 20
213.4183821136074
 30
0.0
 10
19.33015495431708
 20
211.8744118788375
 30
0.0
 10
20.99687321000819
 20
210.2447529807777
 30
0.0
 10
22.78685119568283
 20
208.5437276812787
 30
0.0
 10
25.29359767411454
 20
206.4201145638419
 30
0.0
 10
27.63480530154434
 20
205.0209029216152
 30
0.0
 10
29.66491121258905
 20
204.6804403501264
 30
0.0
 10
31.56308369421504
 20
205.1770041022477
 30
0.0
 10
33.93534767242438
 20
206.6435448203598
 30
0.0
 10
36.4717311114095
 20
208.8573791851625
 30
0.0
 10
39.08718480245572
 20
211.3689837494906
 30
0.0
 10
41.11678920706488
 20
213.4145632643553
 30
0.0
 10
42.72027946762044
 20
215.0609003392327
 30
0.0
 10
43.78593275054395
 20
216.1673824858198
 30
0.0
 10
44.53095972846563
 20
216.9452188693312
 30
0.0
 10
44.97619772619588
 20
217.4115823748267
 30
0.0
 10
45.20061711245843
 20
217.6471043386823
 30
0.0
 10
45.18213058022234
 20
217.6277017272063
 30
0.0
 10
45.17734406882018
 20
217.6226780256339
 30
0.0
  0
SPLINE
  5
1C6
330
1F
100
AcDbEntity
  8
0
  6
SLD-Solid
 62
     8
370
    15
100
AcDbSpline
210
0.0
220
0.0
230
1.0
 70
     8
 71
     3
 72
    28
 73
    24
 74
     0
 42
0.00000001
 43
0.00000001
 40
0.0
 40
0.0
 40
0.0
 40
0.0
 40
0.0004973349854245
 40
0.0389039949319299
 40
0.077329432767948
 40
0.093851100301836
 40
0.1405820944987745
 40
0.1873745501439086
 40
0.2506669818744948
 40
0.3140551484792729
 40
0.3889350214877862
 40
0.4637666125080488
 40
0.4946764435606024
 40
0.5254730092355978
 40
0.557471316855669
 40
0.5893647538217456
 40
0.636213773378934
 40
0.7005207444147652
 40
0.7795953222652945
 40
0.8586027498573635
 40
0.9163243103133543
 40
0.9739542266518031
 40
1.0
 40
1.0
 40
1.0
 40
1.0
 10
45.20763626688213
 20
181.6555012455293
 30
0.0
 10
45.20778630564226
 20
181.6553435782478
 30
0.0
 10
45.21952307730474
 20
181.6430100660287
 30
0.0
 10
45.11475113756023
 20
181.7530887498392
 30
0.0
 10
44.83548913933941
 20
182.0458409743335
 30
0.0
 10
44.39204866927602
 20
182.5098356761077
 30
0.0
 10
43.76139770729024
 20
183.1684568962489
 30
0.0
 10
42.61408142018175
 20
184.3580194837726
 30
0.0
 10
41.0903179890765
 20
185.9256114807122
 30
0.0
 10
39.07249827278225
 20
187.944265232484
 30
0.0
 10
36.74018573706437
 20
190.2317457081871
 30
0.0
 10
34.53336016748768
 20
192.1397100777526
 30
0.0
 10
32.70127031402621
 20
193.4474840177108
 30
0.0
 10
31.32300276167735
 20
194.1875311958886
 30
0.0
 10
29.75874000143494
 20
194.6111680824397
 30
0.0
 10
27.86655496135213
 20
194.3590701960665
 30
0.0
 10
25.74341414873757
 20
193.1981652680406
 30
0.0
 10
23.32169898128869
 20
191.2461882788314
 30
0.0
 10
20.75220864308894
 20
188.8631018907999
 30
0.0
 10
18.5154001925909
 20
186.61930397173
 30
0.0
 10
16.73197956660131
 20
184.803227591109
 30
0.0
 10
15.61181250983773
 20
183.6429610322788
 30
0.0
 10
15.08480530190295
 20
183.0942640386484
 30
0.0
 10
14.92076350742072
 20
182.9234708538362
 30
0.0
  0
LINE
  5
1C7
330
1F
100
AcDbEntity
  8
0
  6
SLD-Solid
 62
     8
370
    15
100
AcDbLine
 10
14.9207635074
 20
175.1549870214
 30
0.0
 11
45.2081280052
 21
175.1549870214
 31
0.0
  0
LINE
  5
1C8
330
1F
100
AcDbEntity
  8
0
  6
SLD-Solid
 62
     8
370
    15
100
AcDbLine
 10
183.2914574295
 20
199.6549861478
 30
0.0
 11
183.2914574295
 21
185.1692835307
 31
0.0
  0
LINE
  5
1C9
330
1F
100
AcDbEntity
  8
0
  6
SLD-Solid
 62
     8
370
    15
100
AcDbLine
 10
183.2914574295
 20
214.1406882992
 30
0.0
 11
183.2914574295
 21
199.6549861478
 31
0.0
  0
LINE
  5
1CA
330
1F
100
AcDbEntity
  8
0
  6
SLD-Solid
 62
     8
370
    15
100
AcDbLine
 10
-47.2918750495
 20
199.6549861478
 30
0.0
 11
-47.2918750495
 21
185.1549858665
 31
0.0
  0
LINE
  5
1CB
330
1F
100
AcDbEntity
  8
0
  6
SLD-Solid
 62
     8
370
    15
100
AcDbLine
 10
-47.2918750495
 20
214.1549859634
 30
0.0
 11
-47.2918750495
 21
199.6549861478
 31
0.0
  0
LINE
  5
1CC
330
1F
100
AcDbEntity
  8
0
  6
SLD-Solid
 62
     8
370
    15
100
AcDbLine
 10
43.458128184
 20
174.1549868574
 30
0.0
 11
15.4581254571
 21
174.1549868574
 31
0.0
  0
LINE
  5
1CD
330
1F
100
AcDbEntity
  8
0
  6
SLD-Solid
 62
     8
370
    15
100
AcDbLine
 10
15.4581254571
 20
225.1549859038
 30
0.0
 11
43.458128184
 21
225.1549859038
 31
0.0
  0
LINE
  5
1CE
330
1F
100
AcDbEntity
  8
0
  6
SLD-Solid
 62
     8
370
    15
100
AcDbLine
 10
43.458128184
 20
227.1549862316
 30
0.0
 11
15.4581254571
 21
227.1549862316
 31
0.0
  0
LINE
  5
1CF
330
1F
100
AcDbEntity
  8
0
  6
SLD-Solid
 62
     8
370
    15
100
AcDbLine
 10
15.4581254571
 20
172.1549865296
 30
0.0
 11
43.458128184
 21
172.1549865296
 31
0.0
  0
SPLINE
  5
1D0
330
1F
100
AcDbEntity
  8
0
  6
SLD-Solid
 62
     8
370
    15
100
AcDbSpline
210
0.0
220
0.0
230
1.0
 70
     8
 71
     3
 72
    10
 73
     6
 74
     0
 42
0.00000001
 43
0.00000001
 40
0.0
 40
0.0
 40
0.0
 40
0.0
 40
0.7197782912325362
 40
0.9908939589937479
 40
1.0
 40
1.0
 40
1.0
 40
1.0
 10
-33.02309678501395
 20
227.6549853822299
 30
0.0
 10
-32.90325374832298
 20
227.5392196518855
 30
0.0
 10
-32.73826997133075
 20
227.3798489619743
 30
0.0
 10
-32.58622227302724
 20
227.2051688107935
 30
0.0
 10
-32.54326709946934
 20
227.1565656328956
 30
0.0
 10
-32.54187123483923
 20
227.1549862315961
 30
0.0
  0
LINE
  5
1D1
330
1F
100
AcDbEntity
  8
0
  6
SLD-Solid
 62
     8
370
    15
100
AcDbLine
 10
-34.0648071618
 20
171.1549863657
 30
0.0
 11
-40.0418715329
 21
171.1549863657
 31
0.0
  0
LINE
  5
1D2
330
1F
100
AcDbEntity
  8
0
  6
SLD-Solid
 62
     8
370
    15
100
AcDbLine
 10
-26.5069978089
 20
227.1549862316
 30
0.0
 11
-25.0418709368
 21
227.1549862316
 31
0.0
  0
LINE
  5
1D3
330
1F
100
AcDbEntity
  8
0
  6
SLD-Solid
 62
     8
370
    15
100
AcDbLine
 10
-25.0418709368
 20
232.6549862018
 30
0.0
 11
-40.0418715329
 21
232.6549862018
 31
0.0
  0
LINE
  5
1D4
330
1F
100
AcDbEntity
  8
0
  6
SLD-Solid
 62
     8
370
    15
100
AcDbLine
 10
-32.5418712348
 20
166.6549865594
 30
0.0
 11
-25.0418709368
 21
166.6549865594
 31
0.0
  0
LINE
  5
1D5
330
1F
100
AcDbEntity
  8
0
  6
SLD-Solid
 62
     8
370
    15
100
AcDbLine
 10
-40.0418715329
 20
166.6549865594
 30
0.0
 11
-32.5418712348
 21
166.6549865594
 31
0.0
  0
LINE
  5
1D6
330
1F
100
AcDbEntity
  8
0
  6
SLD-Solid
 62
     8
370
    15
100
AcDbLine
 10
-25.0418709368
 20
172.1549865296
 30
0.0
 11
-26.5069978089
 21
172.1549865296
 31
0.0
  0
LINE
  5
1D7
330
1F
100
AcDbEntity
  8
0
  6
SLD-Solid
 62
     8
370
    15
100
AcDbLine
 10
14.9581281691
 20
174.1549868574
 30
0.0
 11
13.5408750027
 21
174.1549868574
 31
0.0
  0
LINE
  5
1D8
330
1F
100
AcDbEntity
  8
0
  6
SLD-Solid
 62
     8
370
    15
100
AcDbLine
 10
1.4232544451
 20
172.1549865296
 30
0.0
 11
-0.0418724269
 21
172.1549865296
 31
0.0
  0
LINE
  5
1D9
330
1F
100
AcDbEntity
  8
0
  6
SLD-Solid
 62
     8
370
    15
100
AcDbLine
 10
7.4581278711
 20
166.6549865594
 30
0.0
 11
14.9581281691
 21
166.6549865594
 31
0.0
  0
LINE
  5
1DA
330
1F
100
AcDbEntity
  8
0
  6
SLD-Solid
 62
     8
370
    15
100
AcDbLine
 10
-0.0418724269
 20
166.6549865594
 30
0.0
 11
7.4581278711
 21
166.6549865594
 31
0.0
  0
LINE
  5
1DB
330
1F
100
AcDbEntity
  8
0
  6
SLD-Solid
 62
     8
370
    15
100
AcDbLine
 10
14.9581281691
 20
232.6549862018
 30
0.0
 11
-0.0418724269
 21
232.6549862018
 31
0.0
  0
LINE
  5
1DC
330
1F
100
AcDbEntity
  8
0
  6
SLD-Solid
 62
     8
370
    15
100
AcDbLine
 10
-0.0418724269
 20
227.1549862316
 30
0.0
 11
1.4232544451
 21
227.1549862316
 31
0.0
  0
LINE
  5
1DD
330
1F
100
AcDbEntity
  8
0
  6
SLD-Solid
 62
     8
370
    15
100
AcDbLine
 10
-26.5889318437
 20
216.3414333453
 30
0.0
 11
-19.0418736786
 21
216.3414333453
 31
0.0
  0
LINE
  5
1DE
330
1F
100
AcDbEntity
  8
0
  6
SLD-Solid
 62
     8
370
    15
100
AcDbLine
 10
-6.0418696851
 20
216.3414333453
 30
0.0
 11
1.50518848
 21
216.3414333453
 31
0.0
  0
LINE
  5
1DF
330
1F
100
AcDbEntity
  8
0
  6
SLD-Solid
 62
     8
370
    15
100
AcDbLine
 10
1.50518848
 20
182.9685394159
 30
0.0
 11
-6.0418696851
 21
182.9685394159
 31
0.0
  0
LINE
  5
1E0
330
1F
100
AcDbEntity
  8
0
  6
SLD-Solid
 62
     8
370
    15
100
AcDbLine
 10
-19.0418736786
 20
182.9685394159
 30
0.0
 11
-26.5889318437
 21
182.9685394159
 31
0.0
  0
LINE
  5
1E1
330
1F
100
AcDbEntity
  8
0
  6
SLD-Solid
 62
     8
370
    15
100
AcDbLine
 10
-26.5889318437
 20
173.1549866935
 30
0.0
 11
-19.0418736786
 21
173.1549866935
 31
0.0
  0
LINE
  5
1E2
330
1F
100
AcDbEntity
  8
0
  6
SLD-Solid
 62
     8
370
    15
100
AcDbLine
 10
-6.0418696851
 20
173.1549866935
 30
0.0
 11
1.50518848
 21
173.1549866935
 31
0.0
  0
LINE
  5
1E3
330
1F
100
AcDbEntity
  8
0
  6
SLD-Solid
 62
     8
370
    15
100
AcDbLine
 10
1.50518848
 20
226.1549860677
 30
0.0
 11
-6.0418696851
 21
226.1549860677
 31
0.0
  0
LINE
  5
1E4
330
1F
100
AcDbEntity
  8
0
  6
SLD-Solid
 62
     8
370
    15
100
AcDbLine
 10
-19.0418736786
 20
226.1549860677
 30
0.0
 11
-26.5889318437
 21
226.1549860677
 31
0.0
  0
LINE
  5
1E5
330
1F
100
AcDbEntity
  8
0
  6
SLD-Solid
 62
     7
370
    15
100
AcDbLine
 10
66.0209644809
 20
76.2671816625
 30
0.0
 11
66.0209644809
 21
81.6507545384
 31
0.0
  0
LINE
  5
1E6
330
1F
100
AcDbEntity
  8
0
  6
SLD-Solid
 62
     7
370
    15
100
AcDbLine
 10
-90.5418695659
 20
64.458968816
 30
0.0
 11
369.4581387787
 21
64.458968816
 31
0.0
  0
LINE
  5
1E7
330
1F
100
AcDbEntity
  8
0
  6
SLD-Solid
 62
     7
370
    15
100
AcDbLine
 10
369.4581387787
 20
64.458968816
 30
0.0
 11
369.4581387787
 21
93.4589679815
 31
0.0
  0
CIRCLE
  5
1E8
330
1F
100
AcDbEntity
  8
0
  6
SLD-Solid
 62
     7
370
    15
100
AcDbCircle
 10
361.4581272984
 20
78.9589680339
 30
0.0
 40
2.75
  0
CIRCLE
  5
1E9
330
1F
100
AcDbEntity
  8
0
  6
SLD-Solid
 62
     7
370
    15
100
AcDbCircle
 10
213.4581272984
 20
78.9589680339
 30
0.0
 40
2.750000000000014
  0
CIRCLE
  5
1EA
330
1F
100
AcDbEntity
  8
0
  6
SLD-Solid
 62
     7
370
    15
100
AcDbCircle
 10
65.4581272984
 20
78.9589680339
 30
0.0
 40
2.749999999999972
  0
CIRCLE
  5
1EB
330
1F
100
AcDbEntity
  8
0
  6
SLD-Solid
 62
     7
370
    15
100
AcDbCircle
 10
-82.5418727016
 20
78.9589680339
 30
0.0
 40
2.749999999999972
  0
LINE
  5
1EC
330
1F
100
AcDbEntity
  8
0
  6
SLD-Solid
 62
     7
370
    15
100
AcDbLine
 10
-90.5418695659
 20
64.458968816
 30
0.0
 11
-90.5418695659
 21
93.4589679815
 31
0.0
  0
LINE
  5
1ED
330
1F
100
AcDbEntity
  8
0
  6
SLD-Solid
 62
     7
370
    15
100
AcDbLine
 10
-90.5418695659
 20
93.4589679815
 30
0.0
 11
369.4581387787
 21
93.4589679815
 31
0.0
  0
LWPOLYLINE
  5
1EE
330
1F
100
AcDbEntity
  8
0
  6
SLD-Solid
 62
     7
370
    15
100
AcDbPolyline
 90
        3
 70
   128
 43
0.0
 10
-40.3703378291
 20
93.4589679815
 10
-41.5418745727
 20
93.6089677267
 10
-42.7134113163
 20
93.4589679815
  0
ARC
  5
1EF
330
1F
100
AcDbEntity
  8
0
  6
SLD-Solid
 62
     7
370
    15
100
AcDbCircle
 10
-41.5418727016
 20
68.9589680339
 30
0.0
 40
4.650000000000023
100
AcDbArc
 50
255.407449398
 51
284.592550602
  0
ARC
  5
1F0
330
1F
100
AcDbEntity
  8
0
  6
SLD-Solid
 62
     7
370
    15
100
AcDbCircle
 10
177.4581272984
 20
68.9589680339
 30
0.0
 40
4.650000000000018
100
AcDbArc
 50
255.407449398
 51
284.592550602
  0
LWPOLYLINE
  5
1F1
330
1F
100
AcDbEntity
  8
0
  6
SLD-Solid
 62
     7
370
    15
100
AcDbPolyline
 90
        3
 70
   128
 43
0.0
 10
178.6296664029
 20
93.4589679815
 10
177.4581296592
 20
93.6089677267
 10
176.2865929156
 20
93.4589679815
  0
LWPOLYLINE
  5
1F2
330
1F
100
AcDbEntity
  8
0
  6
SLD-Solid
 62
     7
370
    15
100
AcDbPolyline
 90
        7
 70
   128
 43
0.0
 10
-46.7918740363
 20
63.2089681454
 10
-46.8196572513
 20
63.1811830678
 10
-46.895429656
 20
63.1054143884
 10
-46.9576047511
 20
63.0432337054
 10
-47.0038132519
 20
62.9970289298
 10
-47.0322670192
 20
62.9685751625
 10
-47.0418708176
 20
62.9589676388
  0
LINE
  5
1F3
330
1F
100
AcDbEntity
  8
0
  6
SLD-Solid
 62
     7
370
    15
100
AcDbLine
 10
-47.0418708176
 20
62.9589676388
 30
0.0
 11
-47.0418708176
 21
63.2089681454
 31
0.0
  0
LINE
  5
1F4
330
1F
100
AcDbEntity
  8
0
  6
SLD-Solid
 62
     7
370
    15
100
AcDbLine
 10
-47.0418708176
 20
94.7089677208
 30
0.0
 11
-47.0418708176
 21
94.9589682274
 31
0.0
  0
LWPOLYLINE
  5
1F5
330
1F
100
AcDbEntity
  8
0
  6
SLD-Solid
 62
     7
370
    15
100
AcDbPolyline
 90
        7
 70
   128
 43
0.0
 10
-46.7918740363
 20
94.7089677208
 10
-46.8196572513
 20
94.7367527985
 10
-46.895429656
 20
94.8125214778
 10
-46.9576047511
 20
94.8747030922
 10
-47.0038132519
 20
94.9209078677
 10
-47.0322670192
 20
94.9493607037
 10
-47.0418708176
 20
94.9589682274
  0
LWPOLYLINE
  5
1F6
330
1F
100
AcDbEntity
  8
0
  6
SLD-Solid
 62
     7
370
    15
100
AcDbPolyline
 90
        7
 70
   128
 43
0.0
 10
170.2081261426
 20
94.7089677208
 10
170.1803429275
 20
94.7367527985
 10
170.1045705228
 20
94.8125214778
 10
170.0423954278
 20
94.8747030922
 10
169.9961869269
 20
94.9209078677
 10
169.9677331596
 20
94.9493607037
 10
169.9581293612
 20
94.9589682274
  0
LINE
  5
1F7
330
1F
100
AcDbEntity
  8
0
  6
SLD-Solid
 62
     7
370
    15
100
AcDbLine
 10
169.9581293612
 20
94.9589682274
 30
0.0
 11
182.4581248909
 21
94.9589682274
 31
0.0
  0
LWPOLYLINE
  5
1F8
330
1F
100
AcDbEntity
  8
0
  6
SLD-Solid
 62
     7
370
    15
100
AcDbPolyline
 90
        7
 70
   128
 43
0.0
 10
170.2081261426
 20
63.2089681454
 10
170.1803429275
 20
63.1811830678
 10
170.1045705228
 20
63.1054143884
 10
170.0423954278
 20
63.0432337054
 10
169.9961869269
 20
62.9970289298
 10
169.9677331596
 20
62.9685751625
 10
169.9581293612
 20
62.9589676388
  0
LINE
  5
1F9
330
1F
100
AcDbEntity
  8
0
  6
SLD-Solid
 62
     7
370
    15
100
AcDbLine
 10
169.9581293612
 20
62.9589676388
 30
0.0
 11
169.9581293612
 21
63.2089681454
 31
0.0
  0
LINE
  5
1FA
330
1F
100
AcDbEntity
  8
0
  6
SLD-Solid
 62
     7
370
    15
100
AcDbLine
 10
169.9581293612
 20
94.7089677208
 30
0.0
 11
169.9581293612
 21
94.9589682274
 31
0.0
  0
LINE
  5
1FB
330
1F
100
AcDbEntity
  8
0
  6
SLD-Solid
 62
     7
370
    15
100
AcDbLine
 10
-47.0418708176
 20
94.9589682274
 30
0.0
 11
-34.0418742747
 21
94.9589682274
 31
0.0
  0
LWPOLYLINE
  5
1FC
330
1F
100
AcDbEntity
  8
0
  6
SLD-Solid
 62
     7
370
    15
100
AcDbPolyline
 90
        7
 70
   128
 43
0.0
 10
-34.291871056
 20
94.7089677208
 10
-34.264087841
 20
94.7367527985
 10
-34.1883228869
 20
94.8125214778
 10
-34.1261403412
 20
94.8747030922
 10
-34.0799318404
 20
94.9209078677
 10
-34.0514780731
 20
94.9493607037
 10
-34.0418742747
 20
94.9589682274
  0
ARC
  5
1FD
330
1F
100
AcDbEntity
  8
0
  6
SLD-Solid
 62
     7
370
    15
100
AcDbCircle
 10
182.4581272984
 20
94.4589680339
 30
0.0
 40
0.5000000000000063
100
AcDbArc
 50
30.0000000001
 51
90.0
  0
LINE
  5
1FE
330
1F
100
AcDbEntity
  8
0
  6
SLD-Solid
 62
     7
370
    15
100
AcDbLine
 10
-34.0418742747
 20
94.9589682274
 30
0.0
 11
-34.0418742747
 21
94.7089677208
 31
0.0
  0
LINE
  5
1FF
330
1F
100
AcDbEntity
  8
0
  6
SLD-Solid
 62
     7
370
    15
100
AcDbLine
 10
-34.0418742747
 20
63.2089681454
 30
0.0
 11
-34.0418742747
 21
62.9589676388
 31
0.0
  0
LWPOLYLINE
  5
200
330
1F
100
AcDbEntity
  8
0
  6
SLD-Solid
 62
     7
370
    15
100
AcDbPolyline
 90
        7
 70
   128
 43
0.0
 10
-34.291871056
 20
63.2089681454
 10
-34.264087841
 20
63.1811830678
 10
-34.1883228869
 20
63.1054143884
 10
-34.1261403412
 20
63.0432337054
 10
-34.0799318404
 20
62.9970289298
 10
-34.0514780731
 20
62.9685751625
 10
-34.0418742747
 20
62.9589676388
  0
LWPOLYLINE
  5
201
330
1F
100
AcDbEntity
  8
0
  6
SLD-Solid
 62
     7
370
    15
100
AcDbPolyline
 90
        7
 70
   128
 43
0.0
 10
-19.0418736786
 20
62.9589676388
 10
-19.0342740864
 20
62.9665635057
 10
-19.011721179
 20
62.9891220011
 10
-18.9748855085
 20
63.025955809
 10
-18.9248921127
 20
63.0759454795
 10
-18.8632683606
 20
63.1375748195
 10
-18.7918694467
 20
63.2089681454
  0
LINE
  5
202
330
1F
100
AcDbEntity
  8
0
  6
SLD-Solid
 62
     7
370
    15
100
AcDbLine
 10
-19.0418736786
 20
62.9589676388
 30
0.0
 11
-19.0418736786
 21
63.2089681454
 31
0.0
  0
LINE
  5
203
330
1F
100
AcDbEntity
  8
0
  6
SLD-Solid
 62
     7
370
    15
100
AcDbLine
 10
-6.0418696851
 20
63.2089681454
 30
0.0
 11
-6.0418696851
 21
62.9589676388
 31
0.0
  0
LWPOLYLINE
  5
204
330
1F
100
AcDbEntity
  8
0
  6
SLD-Solid
 62
     7
370
    15
100
AcDbPolyline
 90
        7
 70
   128
 43
0.0
 10
-6.0418696851
 20
62.9589676388
 10
-6.0514809341
 20
62.9685751625
 10
-6.0799347014
 20
62.9970289298
 10
-6.1261357517
 20
63.0432337054
 10
-6.1883182973
 20
63.1054143884
 10
-6.264090702
 20
63.1811830678
 10
-6.291873917
 20
63.2089681454
  0
LWPOLYLINE
  5
205
330
1F
100
AcDbEntity
  8
0
  6
SLD-Solid
 62
     7
370
    15
100
AcDbPolyline
 90
        7
 70
   128
 43
0.0
 10
141.9581247716
 20
62.9589676388
 10
141.9657243639
 20
62.9665635057
 10
141.9882772713
 20
62.9891220011
 10
142.0251129418
 20
63.025955809
 10
142.0751063376
 20
63.0759454795
 10
142.1367300897
 20
63.1375748195
 10
142.2081290036
 20
63.2089681454
  0
LINE
  5
206
330
1F
100
AcDbEntity
  8
0
  6
SLD-Solid
 62
     7
370
    15
100
AcDbLine
 10
141.9581247716
 20
62.9589676388
 30
0.0
 11
141.9581247716
 21
63.2089681454
 31
0.0
  0
LINE
  5
207
330
1F
100
AcDbEntity
  8
0
  6
SLD-Solid
 62
     7
370
    15
100
AcDbLine
 10
154.9581287652
 20
63.2089681454
 30
0.0
 11
154.9581287652
 21
62.9589676388
 31
0.0
  0
LWPOLYLINE
  5
208
330
1F
100
AcDbEntity
  8
0
  6
SLD-Solid
 62
     7
370
    15
100
AcDbPolyline
 90
        7
 70
   128
 43
0.0
 10
154.9581287652
 20
62.9589676388
 10
154.9485175162
 20
62.9685751625
 10
154.9200637489
 20
62.9970289298
 10
154.8738626986
 20
63.0432337054
 10
154.8116801529
 20
63.1054143884
 10
154.7359151989
 20
63.1811830678
 10
154.7081245332
 20
63.2089681454
  0
LINE
  5
209
330
1F
100
AcDbEntity
  8
0
  6
SLD-Solid
 62
     7
370
    15
100
AcDbLine
 10
154.9581287652
 20
62.9589676388
 30
0.0
 11
141.9581247716
 21
62.9589676388
 31
0.0
  0
LINE
  5
20A
330
1F
100
AcDbEntity
  8
0
  6
SLD-Solid
 62
     7
370
    15
100
AcDbLine
 10
-6.0418696851
 20
62.9589676388
 30
0.0
 11
-19.0418736786
 21
62.9589676388
 31
0.0
  0
LINE
  5
20B
330
1F
100
AcDbEntity
  8
0
  6
SLD-Solid
 62
     7
370
    15
100
AcDbLine
 10
-34.0418742747
 20
62.9589676388
 30
0.0
 11
-47.0418708176
 21
62.9589676388
 31
0.0
  0
ARC
  5
20C
330
1F
100
AcDbEntity
  8
0
  6
SLD-Solid
 62
     7
370
    15
100
AcDbCircle
 10
182.4581272984
 20
63.4589680339
 30
0.0
 40
0.5
100
AcDbArc
 50
270.0
 51
330.0000000001
  0
LINE
  5
20D
330
1F
100
AcDbEntity
  8
0
  6
SLD-Solid
 62
     7
370
    15
100
AcDbLine
 10
182.4581248909
 20
62.9589676388
 30
0.0
 11
169.9581293612
 21
62.9589676388
 31
0.0
  0
SPLINE
  5
20E
330
1F
100
AcDbEntity
  8
0
  6
SLD-Solid
 62
     7
370
    15
100
AcDbSpline
210
0.0
220
0.0
230
1.0
 70
    24
 71
     3
 72
    14
 73
    10
 74
     0
 42
0.00000001
 43
0.00000001
 40
0.0
 40
0.0
 40
0.0
 40
0.0
 40
0.6033719259695164
 40
0.7307355062632652
 40
0.8467980662979493
 40
0.9165324180423207
 40
0.9566610053143503
 40
0.9867390416386236
 40
1.0
 40
1.0
 40
1.0
 40
1.0
 10
169.9581293612072
 20
62.95896763880758
 30
0.0
 10
169.8723579604427
 20
62.95896763880756
 30
0.0
 10
169.7684813873658
 20
62.95896763880756
 30
0.0
 10
169.2867242521008
 20
62.95896763880758
 30
0.0
 10
169.0619033329819
 20
62.95896763880758
 30
0.0
 10
168.8442534045431
 20
62.95896763880758
 30
0.0
 10
168.6703590184628
 20
62.95896763880758
 30
0.0
 10
168.5462202166522
 20
62.95896763880759
 30
0.0
 10
168.478766081906
 20
62.95896763880756
 30
0.0
 10
168.4581263213703
 20
62.95896763880758
 30
0.0
  0
SPLINE
  5
20F
330
1F
100
AcDbEntity
  8
0
  6
SLD-Solid
 62
     7
370
    15
100
AcDbSpline
210
0.0
220
0.0
230
1.0
 70
    24
 71
     3
 72
    12
 73
     8
 74
     0
 42
0.00000001
 43
0.00000001
 40
0.0
 40
0.0
 40
0.0
 40
0.0
 40
0.033457023321549
 40
0.0756384328068959
 40
0.1579719506463064
 40
0.4520863676015341
 40
1.0
 40
1.0
 40
1.0
 40
1.0
 10
168.4581263213703
 20
94.95896822740345
 30
0.0
 10
168.5103167407951
 20
94.95896822740345
 30
0.0
 10
168.6283069605134
 20
94.95896822740345
 30
0.0
 10
168.8338013571914
 20
94.95896822740343
 30
0.0
 10
169.2321404436393
 20
94.95896822740343
 30
0.0
 10
169.7562566270036
 20
94.95896822740345
 30
0.0
 10
169.8785513296021
 20
94.95896822740343
 30
0.0
 10
169.9581293612071
 20
94.95896822740345
 30
0.0
  0
LINE
  5
210
330
1F
100
AcDbEntity
  8
0
  6
SLD-Solid
 62
     7
370
    15
100
AcDbLine
 10
-20.5418692679
 20
62.9589676388
 30
0.0
 11
-32.5418712348
 21
62.9589676388
 31
0.0
  0
LINE
  5
211
330
1F
100
AcDbEntity
  8
0
  6
SLD-Solid
 62
     7
370
    15
100
AcDbLine
 10
140.4581291824
 20
62.9589676388
 30
0.0
 11
-4.5418740959
 21
62.9589676388
 31
0.0
  0
LINE
  5
212
330
1F
100
AcDbEntity
  8
0
  6
SLD-Solid
 62
     7
370
    15
100
AcDbLine
 10
168.4581263214
 20
62.9589676388
 30
0.0
 11
156.4581243544
 21
62.9589676388
 31
0.0
  0
LINE
  5
213
330
1F
100
AcDbEntity
  8
0
  6
SLD-Solid
 62
     7
370
    15
100
AcDbLine
 10
168.4581263214
 20
94.9589682274
 30
0.0
 11
-32.5418712348
 21
94.9589682274
 31
0.0
  0
SPLINE
  5
214
330
1F
100
AcDbEntity
  8
0
  6
SLD-Solid
 62
     7
370
    15
100
AcDbSpline
210
0.0
220
0.0
230
1.0
 70
    24
 71
     3
 72
    14
 73
    10
 74
     0
 42
0.00000001
 43
0.00000001
 40
0.0
 40
0.0
 40
0.0
 40
0.0
 40
0.6033719259695164
 40
0.7307355062632652
 40
0.8467980662979493
 40
0.9165324180423207
 40
0.9566610053143503
 40
0.9867390416386236
 40
1.0
 40
1.0
 40
1.0
 40
1.0
 10
-34.04187427467617
 20
94.95896822740345
 30
0.0
 10
-33.95610287391168
 20
94.95896822740345
 30
0.0
 10
-33.85222630083473
 20
94.95896822740346
 30
0.0
 10
-33.37046916556991
 20
94.95896822740343
 30
0.0
 10
-33.14564824645092
 20
94.95896822740343
 30
0.0
 10
-32.92799831801213
 20
94.95896822740343
 30
0.0
 10
-32.75410393193184
 20
94.95896822740343
 30
0.0
 10
-32.62996513012123
 20
94.95896822740345
 30
0.0
 10
-32.56251099537505
 20
94.95896822740345
 30
0.0
 10
-32.54187123483928
 20
94.95896822740345
 30
0.0
  0
SPLINE
  5
215
330
1F
100
AcDbEntity
  8
0
  6
SLD-Solid
 62
     7
370
    15
100
AcDbSpline
210
0.0
220
0.0
230
1.0
 70
    24
 71
     3
 72
    12
 73
     8
 74
     0
 42
0.00000001
 43
0.00000001
 40
0.0
 40
0.0
 40
0.0
 40
0.0
 40
0.033457023321549
 40
0.0756384328068959
 40
0.1579719506463064
 40
0.4520863676015341
 40
1.0
 40
1.0
 40
1.0
 40
1.0
 10
-32.54187123483926
 20
62.95896763880758
 30
0.0
 10
-32.59406165426412
 20
62.95896763880758
 30
0.0
 10
-32.7120518739824
 20
62.95896763880758
 30
0.0
 10
-32.91754627066037
 20
62.95896763880758
 30
0.0
 10
-33.31588535710834
 20
62.95896763880758
 30
0.0
 10
-33.84000154047262
 20
62.95896763880758
 30
0.0
 10
-33.96229624307107
 20
62.95896763880758
 30
0.0
 10
-34.04187427467614
 20
62.95896763880758
 30
0.0
  0
SPLINE
  5
216
330
1F
100
AcDbEntity
  8
0
  6
SLD-Solid
 62
     7
370
    15
100
AcDbSpline
210
0.0
220
0.0
230
1.0
 70
    24
 71
     3
 72
    14
 73
    10
 74
     0
 42
0.00000001
 43
0.00000001
 40
0.0
 40
0.0
 40
0.0
 40
0.0
 40
0.6033727274728811
 40
0.7307358912927634
 40
0.8467993711967421
 40
0.9165338155743885
 40
0.9566624561521759
 40
0.986739024023116
 40
1.0
 40
1.0
 40
1.0
 40
1.0
 10
-19.0418736786297
 20
62.95896763880758
 30
0.0
 10
-19.12765214309542
 20
62.95896763880758
 30
0.0
 10
-19.23153718766418
 20
62.95896763880758
 30
0.0
 10
-19.71326803092363
 20
62.95896763880758
 30
0.0
 10
-19.93810058746687
 20
62.95896763880758
 30
0.0
 10
-20.15574929049158
 20
62.95896763880758
 30
0.0
 10
-20.32964248964581
 20
62.95896763880758
 30
0.0
 10
-20.45377759277264
 20
62.95896763880759
 30
0.0
 10
-20.52122947746288
 20
62.95896763880756
 30
0.0
 10
-20.54186926788601
 20
62.95896763880758
 30
0.0
  0
SPLINE
  5
217
330
1F
100
AcDbEntity
  8
0
  6
SLD-Solid
 62
     7
370
    15
100
AcDbSpline
210
0.0
220
0.0
230
1.0
 70
    24
 71
     3
 72
    12
 73
     8
 74
     0
 42
0.00000001
 43
0.00000001
 40
0.0
 40
0.0
 40
0.0
 40
0.0
 40
0.0334570552451661
 40
0.0756371588238956
 40
0.1579707552233046
 40
0.4520860881364988
 40
1.0
 40
1.0
 40
1.0
 40
1.0
 10
-4.541874095862209
 20
62.95896763880758
 30
0.0
 10
-4.594064698290379
 20
62.95896763880758
 30
0.0
 10
-4.712053231831187
 20
62.95896763880756
 30
0.0
 10
-4.917541609637172
 20
62.95896763880758
 30
0.0
 10
-5.315882572769215
 20
62.95896763880756
 30
0.0
 10
-5.84000868143994
 20
62.95896763880759
 30
0.0
 10
-5.962296321524563
 20
62.95896763880759
 30
0.0
 10
-6.041869685118495
 20
62.95896763880758
 30
0.0
  0
SPLINE
  5
218
330
1F
100
AcDbEntity
  8
0
  6
SLD-Solid
 62
     7
370
    15
100
AcDbSpline
210
0.0
220
0.0
230
1.0
 70
    24
 71
     3
 72
    12
 73
     8
 74
     0
 42
0.00000001
 43
0.00000001
 40
0.0
 40
0.0
 40
0.0
 40
0.0
 40
0.0334570552451661
 40
0.0756371588238956
 40
0.1579707552233046
 40
0.4520860881364988
 40
1.0
 40
1.0
 40
1.0
 40
1.0
 10
156.458124354417
 20
62.95896763880758
 30
0.0
 10
156.4059337519889
 20
62.95896763880758
 30
0.0
 10
156.287945218448
 20
62.95896763880756
 30
0.0
 10
156.082456840642
 20
62.95896763880758
 30
0.0
 10
155.6841158775101
 20
62.95896763880756
 30
0.0
 10
155.1599897688392
 20
62.95896763880759
 30
0.0
 10
155.0377021287546
 20
62.95896763880759
 30
0.0
 10
154.9581287651607
 20
62.95896763880758
 30
0.0
  0
SPLINE
  5
219
330
1F
100
AcDbEntity
  8
0
  6
SLD-Solid
 62
     7
370
    15
100
AcDbSpline
210
0.0
220
0.0
230
1.0
 70
    24
 71
     3
 72
    14
 73
    10
 74
     0
 42
0.00000001
 43
0.00000001
 40
0.0
 40
0.0
 40
0.0
 40
0.0
 40
0.6033725953833824
 40
0.7307357313211024
 40
0.8467991858166292
 40
0.9165336149281103
 40
0.9566609572316956
 40
0.98673902692619
 40
1.0
 40
1.0
 40
1.0
 40
1.0
 10
141.9581247716495
 20
62.95896763880758
 30
0.0
 10
141.8723465394293
 20
62.95896763880758
 30
0.0
 10
141.7684617761298
 20
62.95896763880758
 30
0.0
 10
141.2867300745777
 20
62.95896763880758
 30
0.0
 10
141.0618988747169
 20
62.95896763880758
 30
0.0
 10
140.8442486140454
 20
62.95896763880756
 30
0.0
 10
140.6703606800246
 20
62.95896763880759
 30
0.0
 10
140.546223017731
 20
62.95896763880756
 30
0.0
 10
140.4787689288845
 20
62.95896763880758
 30
0.0
 10
140.4581291823932
 20
62.95896763880758
 30
0.0
  0
LINE
  5
21A
330
1F
100
AcDbEntity
  8
0
  6
SLD-Solid
 62
     7
370
    15
100
AcDbLine
 10
203.4581301957
 20
94.2089676388
 30
0.0
 11
196.9581244736
 21
94.2089676388
 31
0.0
  0
LINE
  5
21B
330
1F
100
AcDbEntity
  8
0
  6
SLD-Solid
 62
     7
370
    15
100
AcDbLine
 10
196.9581244736
 20
94.2089676388
 30
0.0
 11
177.4581296592
 21
94.2089676388
 31
0.0
  0
LINE
  5
21C
330
1F
100
AcDbEntity
  8
0
  6
SLD-Solid
 62
     7
370
    15
100
AcDbLine
 10
177.4581296592
 20
94.2089676388
 30
0.0
 11
-41.5418745727
 21
94.2089676388
 31
0.0
  0
LINE
  5
21D
330
1F
100
AcDbEntity
  8
0
  6
SLD-Solid
 62
     7
370
    15
100
AcDbLine
 10
-41.5418745727
 20
94.2089676388
 30
0.0
 11
-63.0418659896
 21
94.2089676388
 31
0.0
  0
LINE
  5
21E
330
1F
100
AcDbEntity
  8
0
  6
SLD-Solid
 62
     7
370
    15
100
AcDbLine
 10
-63.0418659896
 20
94.2089676388
 30
0.0
 11
-69.5418717117
 21
94.2089676388
 31
0.0
  0
LINE
  5
21F
330
1F
100
AcDbEntity
  8
0
  6
SLD-Solid
 62
     7
370
    15
100
AcDbLine
 10
-69.5418717117
 20
94.2089676388
 30
0.0
 11
-69.5418717117
 21
94.7089677208
 31
0.0
  0
LINE
  5
220
330
1F
100
AcDbEntity
  8
0
  6
SLD-Solid
 62
     7
370
    15
100
AcDbLine
 10
-69.5418717117
 20
94.7089677208
 30
0.0
 11
203.4581301957
 21
94.7089677208
 31
0.0
  0
LINE
  5
221
330
1F
100
AcDbEntity
  8
0
  6
SLD-Solid
 62
     7
370
    15
100
AcDbLine
 10
203.4581301957
 20
94.2089676388
 30
0.0
 11
203.4581301957
 21
94.7089677208
 31
0.0
  0
ARC
  5
222
330
1F
100
AcDbEntity
  8
0
  6
SLD-Solid
 62
     7
370
    15
100
AcDbCircle
 10
196.9581272984
 20
68.9589680339
 30
0.0
 40
5.250000000000023
100
AcDbArc
 50
238.9972808661
 51
270.0
  0
ARC
  5
223
330
1F
100
AcDbEntity
  8
0
  6
SLD-Solid
 62
     7
370
    15
100
AcDbCircle
 10
196.9581272984
 20
68.9589680339
 30
0.0
 40
5.250000000000036
100
AcDbArc
 50
270.0
 51
301.0027191339
  0
LINE
  5
224
330
1F
100
AcDbEntity
  8
0
  6
SLD-Solid
 62
     7
370
    15
100
AcDbLine
 10
177.4581296592
 20
63.7089672961
 30
0.0
 11
196.9581244736
 21
63.7089672961
 31
0.0
  0
ARC
  5
225
330
1F
100
AcDbEntity
  8
0
  6
SLD-Solid
 62
     7
370
    15
100
AcDbCircle
 10
177.4581272984
 20
68.9589680339
 30
0.0
 40
5.250000000000033
100
AcDbArc
 50
238.9972808661
 51
270.0
  0
ARC
  5
226
330
1F
100
AcDbEntity
  8
0
  6
SLD-Solid
 62
     7
370
    15
100
AcDbCircle
 10
177.4581272984
 20
68.9589680339
 30
0.0
 40
5.25000000000003
100
AcDbArc
 50
270.0
 51
301.0027191339
  0
LINE
  5
227
330
1F
100
AcDbEntity
  8
0
  6
SLD-Solid
 62
     7
370
    15
100
AcDbLine
 10
-41.5418745727
 20
63.7089672961
 30
0.0
 11
177.4581296592
 21
63.7089672961
 31
0.0
  0
ARC
  5
228
330
1F
100
AcDbEntity
  8
0
  6
SLD-Solid
 62
     7
370
    15
100
AcDbCircle
 10
-41.5418727016
 20
68.9589680339
 30
0.0
 40
5.250000000000044
100
AcDbArc
 50
238.9972808661
 51
270.0
  0
ARC
  5
229
330
1F
100
AcDbEntity
  8
0
  6
SLD-Solid
 62
     7
370
    15
100
AcDbCircle
 10
-41.5418727016
 20
68.9589680339
 30
0.0
 40
5.250000000000033
100
AcDbArc
 50
270.0
 51
301.0027191339
  0
LINE
  5
22A
330
1F
100
AcDbEntity
  8
0
  6
SLD-Solid
 62
     7
370
    15
100
AcDbLine
 10
-63.0418659896
 20
63.7089672961
 30
0.0
 11
-41.5418745727
 21
63.7089672961
 31
0.0
  0
ARC
  5
22B
330
1F
100
AcDbEntity
  8
0
  6
SLD-Solid
 62
     7
370
    15
100
AcDbCircle
 10
-63.0418727016
 20
68.9589680339
 30
0.0
 40
5.250000000000037
100
AcDbArc
 50
238.9972808661
 51
270.0
  0
ARC
  5
22C
330
1F
100
AcDbEntity
  8
0
  6
SLD-Solid
 62
     7
370
    15
100
AcDbCircle
 10
-63.0418727016
 20
68.9589680339
 30
0.0
 40
5.250000000000035
100
AcDbArc
 50
270.0
 51
301.0027191339
  0
LINE
  5
22D
330
1F
100
AcDbEntity
  8
0
  6
SLD-Solid
 62
     7
370
    15
100
AcDbLine
 10
-69.5418717117
 20
63.7089672961
 30
0.0
 11
-63.0418659896
 21
63.7089672961
 31
0.0
  0
ARC
  5
22E
330
1F
100
AcDbEntity
  8
0
  6
SLD-Solid
 62
     7
370
    15
100
AcDbCircle
 10
-69.5418727016
 20
64.2089680339
 30
0.0
 40
0.5
100
AcDbArc
 50
180.0
 51
270.0
  0
ARC
  5
22F
330
1F
100
AcDbEntity
  8
0
  6
SLD-Solid
 62
     7
370
    15
100
AcDbCircle
 10
-69.5418727016
 20
93.7089680339
 30
0.0
 40
0.5
100
AcDbArc
 50
90.0
 51
180.0
  0
ARC
  5
230
330
1F
100
AcDbEntity
  8
0
  6
SLD-Solid
 62
     7
370
    15
100
AcDbCircle
 10
-63.0418727016
 20
88.9589680339
 30
0.0
 40
5.250000000000033
100
AcDbArc
 50
58.9972808661
 51
90.0
  0
ARC
  5
231
330
1F
100
AcDbEntity
  8
0
  6
SLD-Solid
 62
     7
370
    15
100
AcDbCircle
 10
-63.0418727016
 20
88.9589680339
 30
0.0
 40
5.250000000000033
100
AcDbArc
 50
90.0
 51
121.0027191339
  0
ARC
  5
232
330
1F
100
AcDbEntity
  8
0
  6
SLD-Solid
 62
     7
370
    15
100
AcDbCircle
 10
-41.5418727016
 20
88.9589680339
 30
0.0
 40
5.250000000000027
100
AcDbArc
 50
58.9972808661
 51
90.0
  0
ARC
  5
233
330
1F
100
AcDbEntity
  8
0
  6
SLD-Solid
 62
     7
370
    15
100
AcDbCircle
 10
-41.5418727016
 20
88.9589680339
 30
0.0
 40
5.250000000000027
100
AcDbArc
 50
90.0
 51
121.0027191339
  0
ARC
  5
234
330
1F
100
AcDbEntity
  8
0
  6
SLD-Solid
 62
     7
370
    15
100
AcDbCircle
 10
177.4581272984
 20
88.9589680339
 30
0.0
 40
5.25000000000002
100
AcDbArc
 50
58.9972808661
 51
90.0
  0
ARC
  5
235
330
1F
100
AcDbEntity
  8
0
  6
SLD-Solid
 62
     7
370
    15
100
AcDbCircle
 10
177.4581272984
 20
88.9589680339
 30
0.0
 40
5.250000000000004
100
AcDbArc
 50
90.0
 51
121.0027191339
  0
ARC
  5
236
330
1F
100
AcDbEntity
  8
0
  6
SLD-Solid
 62
     7
370
    15
100
AcDbCircle
 10
196.9581272984
 20
88.9589680339
 30
0.0
 40
5.250000000000026
100
AcDbArc
 50
58.9972808661
 51
90.0
  0
ARC
  5
237
330
1F
100
AcDbEntity
  8
0
  6
SLD-Solid
 62
     7
370
    15
100
AcDbCircle
 10
196.9581272984
 20
88.9589680339
 30
0.0
 40
5.250000000000026
100
AcDbArc
 50
90.0
 51
121.0027191339
  0
ARC
  5
238
330
1F
100
AcDbEntity
  8
0
  6
SLD-Solid
 62
     7
370
    15
100
AcDbCircle
 10
203.4581272984
 20
93.7089680339
 30
0.0
 40
0.5
100
AcDbArc
 50
0.0
 51
90.0
  0
ARC
  5
239
330
1F
100
AcDbEntity
  8
0
  6
SLD-Solid
 62
     7
370
    15
100
AcDbCircle
 10
203.4581272984
 20
64.2089680339
 30
0.0
 40
0.5000000000000071
100
AcDbArc
 50
270.0
 51
0.0
  0
LINE
  5
23A
330
1F
100
AcDbEntity
  8
0
  6
SLD-Solid
 62
     7
370
    15
100
AcDbLine
 10
196.9581244736
 20
63.7089672961
 30
0.0
 11
203.4581301957
 21
63.7089672961
 31
0.0
  0
LINE
  5
23B
330
1F
100
AcDbEntity
  8
0
  6
SLD-Solid
 62
     7
370
    15
100
AcDbLine
 10
-70.5418737382
 20
93.7089684882
 30
0.0
 11
-70.0418652744
 21
93.7089684882
 31
0.0
  0
ARC
  5
23C
330
1F
100
AcDbEntity
  8
0
  6
SLD-Solid
 62
     7
370
    15
100
AcDbCircle
 10
-69.5418727016
 20
93.7089680339
 30
0.0
 40
1.0
100
AcDbArc
 50
90.0
 51
180.0
  0
ARC
  5
23D
330
1F
100
AcDbEntity
  8
0
  6
SLD-Solid
 62
     7
370
    15
100
AcDbCircle
 10
203.4581272984
 20
93.7089680339
 30
0.0
 40
1.0
100
AcDbArc
 50
0.0
 51
90.0
  0
LINE
  5
23E
330
1F
100
AcDbEntity
  8
0
  6
SLD-Solid
 62
     7
370
    15
100
AcDbLine
 10
203.9581237584
 20
93.7089684882
 30
0.0
 11
204.4581322222
 21
93.7089684882
 31
0.0
  0
LINE
  5
23F
330
1F
100
AcDbEntity
  8
0
  6
SLD-Solid
 62
     7
370
    15
100
AcDbLine
 10
-70.5418737382
 20
64.2089683094
 30
0.0
 11
-70.5418737382
 21
64.458968816
 31
0.0
  0
LINE
  5
240
330
1F
100
AcDbEntity
  8
0
  6
SLD-Solid
 62
     7
370
    15
100
AcDbLine
 10
-70.5418737382
 20
93.4589679815
 30
0.0
 11
-70.5418737382
 21
93.7089684882
 31
0.0
  0
LINE
  5
241
330
1F
100
AcDbEntity
  8
0
  6
SLD-Solid
 62
     7
370
    15
100
AcDbLine
 10
-70.5418737382
 20
64.2089683094
 30
0.0
 11
-70.0418652744
 21
64.2089683094
 31
0.0
  0
LINE
  5
242
330
1F
100
AcDbEntity
  8
0
  6
SLD-Solid
 62
     7
370
    15
100
AcDbLine
 10
204.4581322222
 20
93.7089684882
 30
0.0
 11
204.4581322222
 21
93.4589679815
 31
0.0
  0
LINE
  5
243
330
1F
100
AcDbEntity
  8
0
  6
SLD-Solid
 62
     7
370
    15
100
AcDbLine
 10
204.4581322222
 20
64.458968816
 30
0.0
 11
204.4581322222
 21
64.2089683094
 31
0.0
  0
LINE
  5
244
330
1F
100
AcDbEntity
  8
0
  6
SLD-Solid
 62
     7
370
    15
100
AcDbLine
 10
203.9581237584
 20
64.2089683094
 30
0.0
 11
204.4581322222
 21
64.2089683094
 31
0.0
  0
LINE
  5
245
330
1F
100
AcDbEntity
  8
0
  6
SLD-Solid
 62
     7
370
    15
100
AcDbLine
 10
203.4581301957
 20
63.2089681454
 30
0.0
 11
203.4581301957
 21
63.7089672961
 31
0.0
  0
LINE
  5
246
330
1F
100
AcDbEntity
  8
0
  6
SLD-Solid
 62
     7
370
    15
100
AcDbLine
 10
203.4581301957
 20
63.2089681454
 30
0.0
 11
-69.5418717117
 21
63.2089681454
 31
0.0
  0
LINE
  5
247
330
1F
100
AcDbEntity
  8
0
  6
SLD-Solid
 62
     7
370
    15
100
AcDbLine
 10
-69.5418717117
 20
63.2089681454
 30
0.0
 11
-69.5418717117
 21
63.7089672961
 31
0.0
  0
ARC
  5
248
330
1F
100
AcDbEntity
  8
0
  6
SLD-Solid
 62
     7
370
    15
100
AcDbCircle
 10
203.4581272984
 20
64.2089680339
 30
0.0
 40
1.000000000000007
100
AcDbArc
 50
270.0
 51
0.0
  0
ARC
  5
249
330
1F
100
AcDbEntity
  8
0
  6
SLD-Solid
 62
     7
370
    15
100
AcDbCircle
 10
-69.5418727016
 20
64.2089680339
 30
0.0
 40
1.0
100
AcDbArc
 50
180.0
 51
270.0
  0
LINE
  5
24A
330
1F
100
AcDbEntity
  8
0
  6
SLD-Solid
 62
     8
370
    15
100
AcDbLine
 10
182.4581248909
 20
94.9589682274
 30
0.0
 11
182.4581248909
 21
94.7089677208
 31
0.0
  0
LINE
  5
24B
330
1F
100
AcDbEntity
  8
0
  6
SLD-Solid
 62
     8
370
    15
100
AcDbLine
 10
182.4581248909
 20
63.2089681454
 30
0.0
 11
182.4581248909
 21
62.9589676388
 31
0.0
  0
LINE
  5
24C
330
1F
100
AcDbEntity
  8
0
  6
SLD-Solid
 62
     8
370
    15
100
AcDbLine
 10
168.4581263214
 20
62.9589676388
 30
0.0
 11
168.4581263214
 21
63.2089681454
 31
0.0
  0
LINE
  5
24D
330
1F
100
AcDbEntity
  8
0
  6
SLD-Solid
 62
     8
370
    15
100
AcDbLine
 10
168.4581263214
 20
94.7089677208
 30
0.0
 11
168.4581263214
 21
94.9589682274
 31
0.0
  0
LINE
  5
24E
330
1F
100
AcDbEntity
  8
0
  6
SLD-Solid
 62
     8
370
    15
100
AcDbLine
 10
156.4581243544
 20
63.2089681454
 30
0.0
 11
156.4581243544
 21
62.9589676388
 31
0.0
  0
LINE
  5
24F
330
1F
100
AcDbEntity
  8
0
  6
SLD-Solid
 62
     8
370
    15
100
AcDbLine
 10
140.4581291824
 20
62.9589676388
 30
0.0
 11
140.4581291824
 21
63.2089681454
 31
0.0
  0
LINE
  5
250
330
1F
100
AcDbEntity
  8
0
  6
SLD-Solid
 62
     8
370
    15
100
AcDbLine
 10
-4.5418740959
 20
63.2089681454
 30
0.0
 11
-4.5418740959
 21
62.9589676388
 31
0.0
  0
LINE
  5
251
330
1F
100
AcDbEntity
  8
0
  6
SLD-Solid
 62
     8
370
    15
100
AcDbLine
 10
-20.5418692679
 20
62.9589676388
 30
0.0
 11
-20.5418692679
 21
63.2089681454
 31
0.0
  0
LINE
  5
252
330
1F
100
AcDbEntity
  8
0
  6
SLD-Solid
 62
     8
370
    15
100
AcDbLine
 10
-32.5418712348
 20
63.2089681454
 30
0.0
 11
-32.5418712348
 21
62.9589676388
 31
0.0
  0
LINE
  5
253
330
1F
100
AcDbEntity
  8
0
  6
SLD-Solid
 62
     8
370
    15
100
AcDbLine
 10
-32.5418712348
 20
94.9589682274
 30
0.0
 11
-32.5418712348
 21
94.7089677208
 31
0.0
  0
LINE
  5
254
330
1F
100
AcDbEntity
  8
0
  6
SLD-Solid
 62
     8
370
    15
100
AcDbLine
 10
-70.0418652744
 20
93.7089684882
 30
0.0
 11
-70.0418652744
 21
93.4589679815
 31
0.0
  0
LINE
  5
255
330
1F
100
AcDbEntity
  8
0
  6
SLD-Solid
 62
     8
370
    15
100
AcDbLine
 10
-70.0418652744
 20
64.458968816
 30
0.0
 11
-70.0418652744
 21
64.2089683094
 31
0.0
  0
LINE
  5
256
330
1F
100
AcDbEntity
  8
0
  6
SLD-Solid
 62
     8
370
    15
100
AcDbLine
 10
203.9581237584
 20
64.2089683094
 30
0.0
 11
203.9581237584
 21
64.458968816
 31
0.0
  0
LINE
  5
257
330
1F
100
AcDbEntity
  8
0
  6
SLD-Solid
 62
     8
370
    15
100
AcDbLine
 10
203.9581237584
 20
93.4589679815
 30
0.0
 11
203.9581237584
 21
93.7089684882
 31
0.0
  0
ARC
  5
258
330
1F
100
AcDbEntity
  8
0
  6
SLD-Solid
 62
     7
370
    15
100
AcDbCircle
 10
183.4581272984
 20
368.2098004163
 30
0.0
 40
0.5000000000000624
100
AcDbArc
 50
180.0
 51
250.5287793655
  0
ARC
  5
259
330
1F
100
AcDbEntity
  8
0
  6
SLD-Solid
 62
     7
370
    15
100
AcDbCircle
 10
183.4581272984
 20
338.2955868539
 30
0.0
 40
0.5
100
AcDbArc
 50
109.4712206345
 51
180.0
  0
LINE
  5
25A
330
1F
100
AcDbEntity
  8
0
  6
SLD-Solid
 62
     7
370
    15
100
AcDbLine
 10
-47.0418708176
 20
367.752692853
 30
0.0
 11
-47.2918750495
 21
367.752692853
 31
0.0
  0
LINE
  5
25B
330
1F
100
AcDbEntity
  8
0
  6
SLD-Solid
 62
     7
370
    15
100
AcDbLine
 10
-47.2918750495
 20
338.7526936875
 30
0.0
 11
-47.0418708176
 21
338.7526936875
 31
0.0
  0
ARC
  5
25C
330
1F
100
AcDbEntity
  8
0
  6
SLD-Solid
 62
     7
370
    15
100
AcDbCircle
 10
-47.2918727016
 20
339.0026936351
 30
0.0
 40
0.25
100
AcDbArc
 50
180.0
 51
270.0
  0
ARC
  5
25D
330
1F
100
AcDbEntity
  8
0
  6
SLD-Solid
 62
     7
370
    15
100
AcDbCircle
 10
-47.2918727016
 20
367.5026936351
 30
0.0
 40
0.25
100
AcDbArc
 50
90.0
 51
180.0
  0
ARC
  5
25E
330
1F
100
AcDbEntity
  8
0
  6
SLD-Solid
 62
     7
370
    15
100
AcDbCircle
 10
183.2081272984
 20
367.5026936351
 30
0.0
 40
0.25
100
AcDbArc
 50
0.0
 51
70.5287793655
  0
ARC
  5
25F
330
1F
100
AcDbEntity
  8
0
  6
SLD-Solid
 62
     7
370
    15
100
AcDbCircle
 10
183.2081272984
 20
339.0026936351
 30
0.0
 40
0.2500000000000501
100
AcDbArc
 50
289.4712206345
 51
0.0
  0
CIRCLE
  5
260
330
1F
100
AcDbEntity
  8
0
  6
SLD-Solid
 62
     7
370
    15
100
AcDbCircle
 10
316.4581272984
 20
353.2526936351
 30
0.0
 40
3.455343787898016
  0
LINE
  5
261
330
1F
100
AcDbEntity
  8
0
  6
SLD-Solid
 62
     7
370
    15
100
AcDbLine
 10
339.4581375866
 20
354.7526935161
 30
0.0
 11
327.8598783761
 21
354.7526935161
 31
0.0
  0
LINE
  5
262
330
1F
100
AcDbEntity
  8
0
  6
SLD-Solid
 62
     7
370
    15
100
AcDbLine
 10
339.4581375866
 20
351.7526936065
 30
0.0
 11
339.4581375866
 21
354.7526935161
 31
0.0
  0
LINE
  5
263
330
1F
100
AcDbEntity
  8
0
  6
SLD-Solid
 62
     7
370
    15
100
AcDbLine
 10
339.4581375866
 20
351.7526936065
 30
0.0
 11
327.8598783761
 21
351.7526936065
 31
0.0
  0
LINE
  5
264
330
1F
100
AcDbEntity
  8
0
  6
SLD-Solid
 62
     7
370
    15
100
AcDbLine
 10
339.4581375866
 20
344.9526938656
 30
0.0
 11
339.4581375866
 21
351.7526936065
 31
0.0
  0
LINE
  5
265
330
1F
100
AcDbEntity
  8
0
  6
SLD-Solid
 62
     7
370
    15
100
AcDbLine
 10
339.4581375866
 20
354.7526935161
 30
0.0
 11
339.4581375866
 21
361.5526940719
 31
0.0
  0
LINE
  5
266
330
1F
100
AcDbEntity
  8
0
  6
SLD-Solid
 62
     7
370
    15
100
AcDbLine
 10
-90.5418695659
 20
338.7526936875
 30
0.0
 11
-90.5418695659
 21
344.9526938656
 31
0.0
  0
LINE
  5
267
330
1F
100
AcDbEntity
  8
0
  6
SLD-Solid
 62
     7
370
    15
100
AcDbLine
 10
-90.5418695659
 20
344.9526938656
 30
0.0
 11
-70.5418737382
 21
344.9526938656
 31
0.0
  0
LINE
  5
268
330
1F
100
AcDbEntity
  8
0
  6
SLD-Solid
 62
     7
370
    15
100
AcDbLine
 10
-65.2034731359
 20
344.9526938656
 30
0.0
 11
-60.8802737445
 21
344.9526938656
 31
0.0
  0
LINE
  5
269
330
1F
100
AcDbEntity
  8
0
  6
SLD-Solid
 62
     7
370
    15
100
AcDbLine
 10
324.4180379658
 20
344.9526938656
 30
0.0
 11
369.4581387787
 21
344.9526938656
 31
0.0
  0
LINE
  5
26A
330
1F
100
AcDbEntity
  8
0
  6
SLD-Solid
 62
     7
370
    15
100
AcDbLine
 10
369.4581387787
 20
338.7526936875
 30
0.0
 11
369.4581387787
 21
344.9526938656
 31
0.0
  0
LINE
  5
26B
330
1F
100
AcDbEntity
  8
0
  6
SLD-Solid
 62
     7
370
    15
100
AcDbLine
 10
-90.5418695659
 20
338.7526936875
 30
0.0
 11
-70.5418737382
 21
338.7526936875
 31
0.0
  0
LINE
  5
26C
330
1F
100
AcDbEntity
  8
0
  6
SLD-Solid
 62
     7
370
    15
100
AcDbLine
 10
204.4581322222
 20
338.7526936875
 30
0.0
 11
369.4581387787
 21
338.7526936875
 31
0.0
  0
LINE
  5
26D
330
1F
100
AcDbEntity
  8
0
  6
SLD-Solid
 62
     7
370
    15
100
AcDbLine
 10
-90.5418695659
 20
367.752692853
 30
0.0
 11
-70.5418737382
 21
367.752692853
 31
0.0
  0
LINE
  5
26E
330
1F
100
AcDbEntity
  8
0
  6
SLD-Solid
 62
     7
370
    15
100
AcDbLine
 10
204.4581322222
 20
367.752692853
 30
0.0
 11
369.4581387787
 21
367.752692853
 31
0.0
  0
LINE
  5
26F
330
1F
100
AcDbEntity
  8
0
  6
SLD-Solid
 62
     7
370
    15
100
AcDbLine
 10
-90.5418695659
 20
361.5526940719
 30
0.0
 11
-70.5418737382
 21
361.5526940719
 31
0.0
  0
LINE
  5
270
330
1F
100
AcDbEntity
  8
0
  6
SLD-Solid
 62
     7
370
    15
100
AcDbLine
 10
-65.2034731359
 20
361.5526940719
 30
0.0
 11
-60.8802737445
 21
361.5526940719
 31
0.0
  0
LINE
  5
271
330
1F
100
AcDbEntity
  8
0
  6
SLD-Solid
 62
     7
370
    15
100
AcDbLine
 10
324.4180379658
 20
361.5526940719
 30
0.0
 11
369.4581387787
 21
361.5526940719
 31
0.0
  0
LINE
  5
272
330
1F
100
AcDbEntity
  8
0
  6
SLD-Solid
 62
     7
370
    15
100
AcDbLine
 10
-90.5418695659
 20
361.5526940719
 30
0.0
 11
-90.5418695659
 21
367.752692853
 31
0.0
  0
LINE
  5
273
330
1F
100
AcDbEntity
  8
0
  6
SLD-Solid
 62
     7
370
    15
100
AcDbLine
 10
369.4581387787
 20
361.5526940719
 30
0.0
 11
369.4581387787
 21
367.752692853
 31
0.0
  0
CIRCLE
  5
274
330
1F
100
AcDbEntity
  8
0
  6
SLD-Solid
 62
     7
370
    15
100
AcDbCircle
 10
361.4581272984
 20
353.2526936351
 30
0.0
 40
4.749999999999943
  0
CIRCLE
  5
275
330
1F
100
AcDbEntity
  8
0
  6
SLD-Solid
 62
     7
370
    15
100
AcDbCircle
 10
-82.5418727016
 20
353.2526936351
 30
0.0
 40
4.749999999999943
  0
LINE
  5
276
330
1F
100
AcDbEntity
  8
0
  6
SLD-Solid
 62
     7
370
    15
100
AcDbLine
 10
-90.5418695659
 20
344.9526938656
 30
0.0
 11
-90.5418695659
 21
361.5526940719
 31
0.0
  0
LINE
  5
277
330
1F
100
AcDbEntity
  8
0
  6
SLD-Solid
 62
     7
370
    15
100
AcDbLine
 10
369.4581387787
 20
344.9526938656
 30
0.0
 11
369.4581387787
 21
361.5526940719
 31
0.0
  0
CIRCLE
  5
278
330
1F
100
AcDbEntity
  8
0
  6
SLD-Solid
 62
     7
370
    15
100
AcDbCircle
 10
361.4581272984
 20
353.2526936351
 30
0.0
 40
2.750000000000057
  0
CIRCLE
  5
279
330
1F
100
AcDbEntity
  8
0
  6
SLD-Solid
 62
     7
370
    15
100
AcDbCircle
 10
-82.5418727016
 20
353.2526936351
 30
0.0
 40
2.75
  0
LINE
  5
27A
330
1F
100
AcDbEntity
  8
0
  6
SLD-Solid
 62
     7
370
    15
100
AcDbLine
 10
319.8122231513
 20
342.2526933299
 30
0.0
 11
204.4581322222
 21
342.2526933299
 31
0.0
  0
LINE
  5
27B
330
1F
100
AcDbEntity
  8
0
  6
SLD-Solid
 62
     7
370
    15
100
AcDbLine
 10
199.5198576003
 20
342.2526933299
 30
0.0
 11
194.396391347
 21
342.2526933299
 31
0.0
  0
SPLINE
  5
27C
330
1F
100
AcDbEntity
  8
0
  6
SLD-Solid
 62
     7
370
    15
100
AcDbSpline
210
0.0
220
0.0
230
1.0
 70
     8
 71
     3
 72
    13
 73
     9
 74
     0
 42
0.00000001
 43
0.00000001
 40
0.0
 40
0.0
 40
0.0
 40
0.0
 40
0.2117139009458853
 40
0.4233937702539552
 40
0.636092368204279
 40
0.8510111378597754
 40
0.9895870848257877
 40
1.0
 40
1.0
 40
1.0
 40
1.0
 10
319.8122231512614
 20
342.2526933298618
 30
0.0
 10
319.8114151592696
 20
342.2581351349644
 30
0.0
 10
319.8097993051654
 20
342.269017870435
 30
0.0
 10
319.7971353499034
 20
342.3537698125995
 30
0.0
 10
319.7783774564862
 20
342.4787466644257
 30
0.0
 10
319.7575359416455
 20
342.6170650212543
 30
0.0
 10
319.7430857791275
 20
342.7113722804203
 30
0.0
 10
319.7372602289161
 20
342.7499941104465
 30
0.0
 10
319.736853077943
 20
342.7526934118181
 30
0.0
  0
ARC
  5
27D
330
1F
100
AcDbEntity
  8
0
  6
SLD-Solid
 62
     7
370
    15
100
AcDbCircle
 10
316.4581272984
 20
353.2526936351
 30
0.0
 40
11.0
100
AcDbArc
 50
287.3414428028
 51
72.6585571972
  0
CIRCLE
  5
27E
330
1F
100
AcDbEntity
  8
0
  6
SLD-Solid
 62
     7
370
    15
100
AcDbCircle
 10
316.4581272984
 20
353.2526936351
 30
0.0
 40
6.0
  0
ARC
  5
27F
330
1F
100
AcDbEntity
  8
0
  6
SLD-Solid
 62
     7
370
    15
100
AcDbCircle
 10
316.4581272984
 20
353.2526936351
 30
0.0
 40
11.5
100
AcDbArc
 50
286.9574262942
 51
73.0425737058
  0
SPLINE
  5
280
330
1F
100
AcDbEntity
  8
0
  6
SLD-Solid
 62
     7
370
    15
100
AcDbSpline
210
0.0
220
0.0
230
1.0
 70
     8
 71
     3
 72
    13
 73
     9
 74
     0
 42
0.00000001
 43
0.00000001
 40
0.0
 40
0.0
 40
0.0
 40
0.0
 40
0.0104129210845908
 40
0.1489889467064167
 40
0.3639078383499711
 40
0.5766065570281818
 40
0.7882859788851426
 40
0.9999999999999999
 40
0.9999999999999999
 40
0.9999999999999999
 40
0.9999999999999999
 10
319.736853077943
 20
363.7526940600187
 30
0.0
 10
319.7372602289163
 20
363.7553933613811
 30
0.0
 10
319.7430857791326
 20
363.7940151912755
 30
0.0
 10
319.7575359411773
 20
363.8883224639375
 30
0.0
 10
319.7783774591269
 20
364.0266407320804
 30
0.0
 10
319.7971353236991
 20
364.1516178207097
 30
0.0
 10
319.8097993206559
 20
364.2363684573612
 30
0.0
 10
319.8114151637114
 20
364.2472513297765
 30
0.0
 10
319.8122231512614
 20
364.2526932106525
 30
0.0
  0
CIRCLE
  5
281
330
1F
100
AcDbEntity
  8
0
  6
SLD-Solid
 62
     7
370
    15
100
AcDbCircle
 10
316.4581272984
 20
353.2526936351
 30
0.0
 40
5.0
  0
LINE
  5
282
330
1F
100
AcDbEntity
  8
0
  6
SLD-Solid
 62
     7
370
    15
100
AcDbLine
 10
194.396391347
 20
364.2526932107
 30
0.0
 11
199.5198576003
 21
364.2526932107
 31
0.0
  0
LINE
  5
283
330
1F
100
AcDbEntity
  8
0
  6
SLD-Solid
 62
     7
370
    15
100
AcDbLine
 10
204.4581322222
 20
364.2526932107
 30
0.0
 11
319.8122231513
 21
364.2526932107
 31
0.0
  0
LINE
  5
284
330
1F
100
AcDbEntity
  8
0
  6
SLD-Solid
 62
     7
370
    15
100
AcDbLine
 10
28.5133233517
 20
348.0884083127
 30
0.0
 11
34.4029328077
 21
351.4887758227
 31
0.0
  0
SPLINE
  5
285
330
1F
100
AcDbEntity
  8
0
  6
SLD-Solid
 62
     7
370
    15
100
AcDbSpline
210
0.0
220
0.0
230
1.0
 70
     8
 71
     3
 72
    13
 73
     9
 74
     0
 42
0.00000001
 43
0.00000001
 40
0.0
 40
0.0
 40
0.0
 40
0.0
 40
0.0068847043969075
 40
0.1828651854042828
 40
0.3975836068828938
 40
0.6014162124331482
 40
0.8006254085778064
 40
1.0
 40
1.0
 40
1.0
 40
1.0
 10
34.40293280773846
 20
351.4887758227237
 30
0.0
 10
34.40435461717081
 20
351.4875896979211
 30
0.0
 10
34.44211941148376
 20
351.4560849419535
 30
0.0
 10
34.52427186673959
 20
351.3872668162593
 30
0.0
 10
34.6378977161953
 20
351.2910683136644
 30
0.0
 10
34.73238821149224
 20
351.2103596147189
 30
0.0
 10
34.79576602562723
 20
351.1558792612158
 30
0.0
 10
34.80393976154097
 20
351.1488320208298
 30
0.0
 10
34.8080283253738
 20
351.1453069384847
 30
0.0
  0
LINE
  5
286
330
1F
100
AcDbEntity
  8
0
  6
SLD-Solid
 62
     7
370
    15
100
AcDbLine
 10
34.8080283254
 20
351.1453069385
 30
0.0
 11
28.6082288473
 21
347.565851598
 31
0.0
  0
SPLINE
  5
287
330
1F
100
AcDbEntity
  8
0
  6
SLD-Solid
 62
     7
370
    15
100
AcDbSpline
210
0.0
220
0.0
230
1.0
 70
     8
 71
     3
 72
    13
 73
     9
 74
     0
 42
0.00000001
 43
0.00000001
 40
0.0
 40
0.0
 40
0.0
 40
0.0
 40
0.006886771959588
 40
0.182866666346705
 40
0.3975822660361851
 40
0.6014168932490052
 40
0.8006257258730332
 40
1.0
 40
1.0
 40
1.0
 40
1.0
 10
28.51332335167614
 20
348.0884083126843
 30
0.0
 10
28.51363868165868
 20
348.0865831927344
 30
0.0
 10
28.52201173989924
 20
348.0381201968805
 30
0.0
 10
28.54057453562778
 20
347.932572160329
 30
0.0
 10
28.56705552718149
 20
347.7860688090854
 30
0.0
 10
28.58970899083063
 20
347.6638819004994
 30
0.0
 10
28.60520040936229
 20
347.5817552313235
 30
0.0
 10
28.60721908870013
 20
347.5711542758155
 30
0.0
 10
28.60822884731975
 20
347.5658515979707
 30
0.0
  0
ARC
  5
288
330
1F
100
AcDbEntity
  8
0
  6
SLD-Solid
 62
     7
370
    15
100
AcDbCircle
 10
29.4581272984
 20
353.2526936351
 30
0.0
 40
5.250000000000105
100
AcDbArc
 50
250.3675935442
 51
259.6324064558
  0
ARC
  5
289
330
1F
100
AcDbEntity
  8
0
  6
SLD-Solid
 62
     7
370
    15
100
AcDbCircle
 10
29.4581272984
 20
353.2526936351
 30
0.0
 40
5.750000000000029
100
AcDbArc
 50
248.4999504092
 51
261.5000495908
  0
SPLINE
  5
28A
330
1F
100
AcDbEntity
  8
0
  6
SLD-Solid
 62
     7
370
    15
100
AcDbSpline
210
0.0
220
0.0
230
1.0
 70
     8
 71
     3
 72
    13
 73
     9
 74
     0
 42
0.00000001
 43
0.00000001
 40
0.0
 40
0.0
 40
0.0
 40
0.0
 40
0.0068863989995406
 40
0.1828680964564361
 40
0.3975822392527473
 40
0.6014166744524837
 40
0.8006261452082951
 40
1.0
 40
1.0
 40
1.0
 40
1.0
 10
27.69421024614063
 20
348.3078889128923
 30
0.0
 10
27.69302444531559
 20
348.3064662385857
 30
0.0
 10
27.66153554383498
 20
348.2686871696774
 30
0.0
 10
27.59269110742195
 20
348.1865566285703
 30
0.0
 10
27.49650490445332
 20
348.0729227015124
 30
0.0
 10
27.41579534674273
 20
347.9784315389515
 30
0.0
 10
27.36131179884155
 20
347.9150543018416
 30
0.0
 10
27.35426637211576
 20
347.9068822636601
 30
0.0
 10
27.35074220591274
 20
347.9027945594102
 30
0.0
  0
LINE
  5
28B
330
1F
100
AcDbEntity
  8
0
  6
SLD-Solid
 62
     7
370
    15
100
AcDbLine
 10
24.2938434928
 20
354.197498369
 30
0.0
 11
27.6942102461
 21
348.3078889129
 31
0.0
  0
LINE
  5
28C
330
1F
100
AcDbEntity
  8
0
  6
SLD-Solid
 62
     7
370
    15
100
AcDbLine
 10
27.3507422059
 20
347.9027945594
 30
0.0
 11
23.7712858468
 21
354.1025928733
 31
0.0
  0
SPLINE
  5
28D
330
1F
100
AcDbEntity
  8
0
  6
SLD-Solid
 62
     7
370
    15
100
AcDbSpline
210
0.0
220
0.0
230
1.0
 70
     8
 71
     3
 72
    13
 73
     9
 74
     0
 42
0.00000001
 43
0.00000001
 40
0.0
 40
0.0
 40
0.0
 40
0.0
 40
0.1993740302257074
 40
0.3985823208159122
 40
0.6024159299455437
 40
0.817133409035244
 40
0.9931120400279858
 40
1.0
 40
1.0
 40
1.0
 40
1.0
 10
23.77128584676472
 20
354.102592873311
 30
0.0
 10
23.77658875673928
 20
354.1036017853259
 30
0.0
 10
23.78719016837925
 20
354.105618770647
 30
0.0
 10
23.86931595026743
 20
354.1211116848618
 30
0.0
 10
23.9915031346076
 20
354.1437616192675
 30
0.0
 10
24.13800575153802
 20
354.1702515607825
 30
0.0
 10
24.24355738957726
 20
354.1887961805916
 30
0.0
 10
24.29201814176479
 20
354.1971824854893
 30
0.0
 10
24.29384349280086
 20
354.1974983689547
 30
0.0
  0
ARC
  5
28E
330
1F
100
AcDbEntity
  8
0
  6
SLD-Solid
 62
     7
370
    15
100
AcDbCircle
 10
29.4581272984
 20
353.2526936351
 30
0.0
 40
5.250000000000074
100
AcDbArc
 50
340.3675935442
 51
349.6324064558
  0
SPLINE
  5
28F
330
1F
100
AcDbEntity
  8
0
  6
SLD-Solid
 62
     7
370
    15
100
AcDbSpline
210
0.0
220
0.0
230
1.0
 70
     8
 71
     3
 72
    13
 73
     9
 74
     0
 42
0.00000001
 43
0.00000001
 40
0.0
 40
0.0
 40
0.0
 40
0.0
 40
0.0068879599497873
 40
0.1828665656558446
 40
0.3975840674359918
 40
0.6014176759078664
 40
0.8006259658552399
 40
1.0
 40
1.0
 40
1.0
 40
1.0
 10
34.62241201096264
 20
352.3078888700515
 30
0.0
 10
34.62423736199086
 20
352.3082047535638
 30
0.0
 10
34.67269810741866
 20
352.3165910585761
 30
0.0
 10
34.77824978082447
 20
352.3351354648667
 30
0.0
 10
34.92475235507806
 20
352.3616256747302
 30
0.0
 10
35.04693955589097
 20
352.3842755478669
 30
0.0
 10
35.12906533544101
 20
352.399768441018
 30
0.0
 10
35.13966674700272
 20
352.4017855221558
 30
0.0
 10
35.14496965699879
 20
352.4027944821104
 30
0.0
  0
ARC
  5
290
330
1F
100
AcDbEntity
  8
0
  6
SLD-Solid
 62
     7
370
    15
100
AcDbCircle
 10
29.4581272984
 20
353.2526936351
 30
0.0
 40
5.750000000000004
100
AcDbArc
 50
338.4999504092
 51
351.5000495908
  0
LINE
  5
291
330
1F
100
AcDbEntity
  8
0
  6
SLD-Solid
 62
     7
370
    15
100
AcDbLine
 10
34.622412011
 20
352.3078888701
 30
0.0
 11
31.2220452576
 21
358.1974983261
 31
0.0
  0
SPLINE
  5
292
330
1F
100
AcDbEntity
  8
0
  6
SLD-Solid
 62
     7
370
    15
100
AcDbSpline
210
0.0
220
0.0
230
1.0
 70
     8
 71
     3
 72
    13
 73
     9
 74
     0
 42
0.00000001
 43
0.00000001
 40
0.0
 40
0.0
 40
0.0
 40
0.0
 40
0.1993738341209405
 40
0.3985833903986263
 40
0.6024178044651324
 40
0.8171319250002225
 40
0.9931138233641177
 40
1.0
 40
1.0
 40
1.0
 40
1.0
 10
31.56551329785076
 20
358.6025929124266
 30
0.0
 10
31.56198913134309
 20
358.5985052272495
 30
0.0
 10
31.55494370213141
 20
358.590333225021
 30
0.0
 10
31.50046013755137
 20
358.5269556751438
 30
0.0
 10
31.4197507607065
 20
358.4324644225883
 30
0.0
 10
31.32356376361216
 20
358.3188310630678
 30
0.0
 10
31.2547209966966
 20
358.2366991266011
 30
0.0
 10
31.22323105930599
 20
358.1989209220983
 30
0.0
 10
31.22204525762287
 20
358.1974983261138
 30
0.0
  0
LINE
  5
293
330
1F
100
AcDbEntity
  8
0
  6
SLD-Solid
 62
     7
370
    15
100
AcDbLine
 10
31.5655132979
 20
358.6025929124
 30
0.0
 11
35.144969657
 21
352.4027944821
 31
0.0
  0
ARC
  5
294
330
1F
100
AcDbEntity
  8
0
  6
SLD-Solid
 62
     7
370
    15
100
AcDbCircle
 10
29.4581272984
 20
353.2526936351
 30
0.0
 40
5.749999999999991
100
AcDbArc
 50
158.4999504092
 51
171.5000495908
  0
SPLINE
  5
295
330
1F
100
AcDbEntity
  8
0
  6
SLD-Solid
 62
     7
370
    15
100
AcDbSpline
210
0.0
220
0.0
230
1.0
 70
     8
 71
     3
 72
    13
 73
     9
 74
     0
 42
0.00000001
 43
0.00000001
 40
0.0
 40
0.0
 40
0.0
 40
0.0
 40
0.1993743362741433
 40
0.3985815519216158
 40
0.6024164864387392
 40
0.8171313687590476
 40
0.9931117587380744
 40
1.0
 40
1.0
 40
1.0
 40
1.0
 10
24.1082271783897
 20
355.36008021321
 30
0.0
 10
24.11231613624862
 20
355.3565551670809
 30
0.0
 10
24.12049062449825
 20
355.3495080296059
 30
0.0
 10
24.1838623588392
 20
355.295027065021
 30
0.0
 10
24.27835686467475
 20
355.2143183189739
 30
0.0
 10
24.3919868370093
 20
355.1181278829427
 30
0.0
 10
24.47412026969112
 20
355.049286180636
 30
0.0
 10
24.51189963415079
 20
355.0177973534452
 30
0.0
 10
24.51332269602505
 20
355.0166112416595
 30
0.0
  0
ARC
  5
296
330
1F
100
AcDbEntity
  8
0
  6
SLD-Solid
 62
     7
370
    15
100
AcDbCircle
 10
29.4581272984
 20
353.2526936351
 30
0.0
 40
5.250000000000078
100
AcDbArc
 50
160.3675935442
 51
169.6324064558
  0
LINE
  5
297
330
1F
100
AcDbEntity
  8
0
  6
SLD-Solid
 62
     7
370
    15
100
AcDbLine
 10
24.1082271784
 20
355.3600802132
 30
0.0
 11
30.3080266564
 21
358.9395351754
 31
0.0
  0
SPLINE
  5
298
330
1F
100
AcDbEntity
  8
0
  6
SLD-Solid
 62
     7
370
    15
100
AcDbSpline
210
0.0
220
0.0
230
1.0
 70
     8
 71
     3
 72
    13
 73
     9
 74
     0
 42
0.00000001
 43
0.00000001
 40
0.0
 40
0.0
 40
0.0
 40
0.0
 40
0.1993738876923975
 40
0.3985823012936403
 40
0.6024169907364547
 40
0.8171329536415383
 40
0.9931129486739625
 40
1.0
 40
1.0
 40
1.0
 40
1.0
 10
30.30802665644375
 20
358.9395351753741
 30
0.0
 10
30.30903485255204
 20
358.934232646847
 30
0.0
 10
30.31105040799736
 20
358.9236319907257
 30
0.0
 10
30.32654292772918
 20
358.8415058272875
 30
0.0
 10
30.34919681563822
 20
358.7193186688195
 30
0.0
 10
30.37567497147757
 20
358.5728145178217
 30
0.0
 10
30.3942441291547
 20
358.4672673227856
 30
0.0
 10
30.40261682366711
 20
358.418804124153
 30
0.0
 10
30.40293215208736
 20
358.4169789263219
 30
0.0
  0
LINE
  5
299
330
1F
100
AcDbEntity
  8
0
  6
SLD-Solid
 62
     7
370
    15
100
AcDbLine
 10
30.4029321521
 20
358.4169789263
 30
0.0
 11
24.513322696
 21
355.0166112417
 31
0.0
  0
ARC
  5
29A
330
1F
100
AcDbEntity
  8
0
  6
SLD-Solid
 62
     7
370
    15
100
AcDbCircle
 10
29.4581272984
 20
353.2526936351
 30
0.0
 40
5.749999999999983
100
AcDbArc
 50
68.4999504092
 51
81.5000495908
  0
ARC
  5
29B
330
1F
100
AcDbEntity
  8
0
  6
SLD-Solid
 62
     7
370
    15
100
AcDbCircle
 10
29.4581272984
 20
353.2526936351
 30
0.0
 40
5.250000000000019
100
AcDbArc
 50
70.3675935442
 51
79.6324064558
  0
CIRCLE
  5
29C
330
1F
100
AcDbEntity
  8
0
  6
SLD-Solid
 62
     7
370
    15
100
AcDbCircle
 10
29.4581272984
 20
353.2526936351
 30
0.0
 40
3.957106781186553
  0
CIRCLE
  5
29D
330
1F
100
AcDbEntity
  8
0
  6
SLD-Solid
 62
     7
370
    15
100
AcDbCircle
 10
29.4581272984
 20
353.2526936351
 30
0.0
 40
3.603553390593277
  0
CIRCLE
  5
29E
330
1F
100
AcDbEntity
  8
0
  6
SLD-Solid
 62
     7
370
    15
100
AcDbCircle
 10
29.4581272984
 20
353.2526936351
 30
0.0
 40
2.249999999999943
  0
CIRCLE
  5
29F
330
1F
100
AcDbEntity
  8
0
  6
SLD-Solid
 62
     7
370
    15
100
AcDbCircle
 10
-32.5418727016
 20
353.2526936351
 30
0.0
 40
3.249999999999943
  0
CIRCLE
  5
2A0
330
1F
100
AcDbEntity
  8
0
  6
SLD-Solid
 62
     7
370
    15
100
AcDbCircle
 10
-32.5418727016
 20
353.2526936351
 30
0.0
 40
4.0
  0
CIRCLE
  5
2A1
330
1F
100
AcDbEntity
  8
0
  6
SLD-Solid
 62
     7
370
    15
100
AcDbCircle
 10
7.4581272984
 20
353.2526936351
 30
0.0
 40
4.0
  0
CIRCLE
  5
2A2
330
1F
100
AcDbEntity
  8
0
  6
SLD-Solid
 62
     7
370
    15
100
AcDbCircle
 10
7.4581272984
 20
353.2526936351
 30
0.0
 40
4.5
  0
CIRCLE
  5
2A3
330
1F
100
AcDbEntity
  8
0
  6
SLD-Solid
 62
     7
370
    15
100
AcDbCircle
 10
-32.5418727016
 20
353.2526936351
 30
0.0
 40
4.5
  0
CIRCLE
  5
2A4
330
1F
100
AcDbEntity
  8
0
  6
SLD-Solid
 62
     7
370
    15
100
AcDbCircle
 10
7.4581272984
 20
353.2526936351
 30
0.0
 40
3.249999999999943
  0
CIRCLE
  5
2A5
330
1F
100
AcDbEntity
  8
0
  6
SLD-Solid
 62
     7
370
    15
100
AcDbCircle
 10
29.4581272984
 20
353.2526936351
 30
0.0
 40
6.0
  0
ARC
  5
2A6
330
1F
100
AcDbEntity
  8
0
  6
SLD-Solid
 62
     7
370
    15
100
AcDbCircle
 10
29.4581272984
 20
353.2526936351
 30
0.0
 40
5.750000000000029
100
AcDbArc
 50
261.5000495908
 51
338.4999504092
  0
ARC
  5
2A7
330
1F
100
AcDbEntity
  8
0
  6
SLD-Solid
 62
     7
370
    15
100
AcDbCircle
 10
29.4581272984
 20
353.2526936351
 30
0.0
 40
5.750000000000004
100
AcDbArc
 50
351.5000495908
 51
68.4999504092
  0
ARC
  5
2A8
330
1F
100
AcDbEntity
  8
0
  6
SLD-Solid
 62
     7
370
    15
100
AcDbCircle
 10
29.4581272984
 20
353.2526936351
 30
0.0
 40
5.749999999999989
100
AcDbArc
 50
81.5000495908
 51
158.4999504092
  0
ARC
  5
2A9
330
1F
100
AcDbEntity
  8
0
  6
SLD-Solid
 62
     7
370
    15
100
AcDbCircle
 10
29.4581272984
 20
353.2526936351
 30
0.0
 40
5.750000000000025
100
AcDbArc
 50
171.5000495908
 51
248.4999504092
  0
CIRCLE
  5
2AA
330
1F
100
AcDbEntity
  8
0
  6
SLD-Solid
 62
     7
370
    15
100
AcDbCircle
 10
7.4581272984
 20
353.2526936351
 30
0.0
 40
7.0
  0
CIRCLE
  5
2AB
330
1F
100
AcDbEntity
  8
0
  6
SLD-Solid
 62
     7
370
    15
100
AcDbCircle
 10
7.4581272984
 20
353.2526936351
 30
0.0
 40
7.5
  0
CIRCLE
  5
2AC
330
1F
100
AcDbEntity
  8
0
  6
SLD-Solid
 62
     7
370
    15
100
AcDbCircle
 10
-32.5418727016
 20
353.2526936351
 30
0.0
 40
7.0
  0
CIRCLE
  5
2AD
330
1F
100
AcDbEntity
  8
0
  6
SLD-Solid
 62
     7
370
    15
100
AcDbCircle
 10
-32.5418727016
 20
353.2526936351
 30
0.0
 40
7.5
  0
SPLINE
  5
2AE
330
1F
100
AcDbEntity
  8
0
  6
SLD-Solid
 62
     7
370
    15
100
AcDbSpline
210
0.0
220
0.0
230
1.0
 70
     8
 71
     3
 72
    12
 73
     8
 74
     0
 42
0.00000001
 43
0.00000001
 40
0.0
 40
0.0
 40
0.0
 40
0.0
 40
0.0043614441135691
 40
0.1252182129766422
 40
0.4902169949547677
 40
0.8018604461197075
 40
1.0
 40
1.0
 40
1.0
 40
1.0
 10
-32.54187123483928
 20
345.7526934378952
 30
0.0
 10
-32.54425789775684
 20
345.7526910809358
 30
0.0
 10
-32.61277962077536
 20
345.7526234120097
 30
0.0
 10
-32.88109739201361
 20
345.7406144727264
 30
0.0
 10
-33.31114843398358
 20
345.6506141929183
 30
0.0
 10
-33.76184294675438
 20
345.4873999639954
 30
0.0
 10
-34.05312310948472
 20
345.4384039911524
 30
0.0
 10
-34.16633622354778
 20
345.4193605155855
 30
0.0
  0
LWPOLYLINE
  5
2AF
330
1F
100
AcDbEntity
  8
0
  6
SLD-Solid
 62
     7
370
    15
100
AcDbPolyline
 90
        9
 70
   128
 43
0.0
 10
-34.0648071618
 20
345.9089437545
 10
-34.0667592139
 20
345.8995364652
 10
-34.0725408644
 20
345.8716764161
 10
-34.0819211454
 20
345.8264341624
 10
-34.0945498795
 20
345.7655480177
 10
-34.1099353284
 20
345.6913583958
 10
-34.1274814457
 20
345.6067156092
 10
-34.1465325803
 20
345.5148732335
 10
-34.1663362235
 20
345.4193605156
  0
LWPOLYLINE
  5
2B0
330
1F
100
AcDbEntity
  8
0
  6
SLD-Solid
 62
     7
370
    15
100
AcDbPolyline
 90
        9
 70
   128
 43
0.0
 10
-34.0648071618
 20
360.5964437173
 10
-34.0667592139
 20
360.6058510066
 10
-34.0725408644
 20
360.6337105901
 10
-34.0819211454
 20
360.6789533095
 10
-34.0945498795
 20
360.7398394541
 10
-34.1099353284
 20
360.8140286104
 10
-34.1274814457
 20
360.8986718626
 10
-34.1465325803
 20
360.9905142383
 10
-34.1663362235
 20
361.0860269563
  0
SPLINE
  5
2B1
330
1F
100
AcDbEntity
  8
0
  6
SLD-Solid
 62
     7
370
    15
100
AcDbSpline
210
0.0
220
0.0
230
1.0
 70
     8
 71
     3
 72
    12
 73
     8
 74
     0
 42
0.00000001
 43
0.00000001
 40
0.0
 40
0.0
 40
0.0
 40
0.0
 40
0.0043614444429276
 40
0.125218200642903
 40
0.4902170737582801
 40
0.8018604486636672
 40
1.0
 40
1.0
 40
1.0
 40
1.0
 10
-32.54187123483926
 20
360.7526935682803
 30
0.0
 10
-32.54425789774562
 20
360.7526960834911
 30
0.0
 10
-32.61277960851944
 20
360.7527682958458
 30
0.0
 10
-32.88109750959414
 20
360.7647656781212
 30
0.0
 10
-33.31114822492953
 20
360.8547763916539
 30
0.0
 10
-33.76184301970814
 20
361.0179870903932
 30
0.0
 10
-34.05312311834793
 20
361.0669833619015
 30
0.0
 10
-34.16633622354775
 20
361.0860269562513
 30
0.0
  0
ARC
  5
2B2
330
1F
100
AcDbEntity
  8
0
  6
SLD-Solid
 62
     7
370
    15
100
AcDbCircle
 10
-32.5418727016
 20
353.2526936351
 30
0.0
 40
8.000000000000037
100
AcDbArc
 50
101.7158523949
 51
258.2841476051
  0
ARC
  5
2B3
330
1F
100
AcDbEntity
  8
0
  6
SLD-Solid
 62
     7
370
    15
100
AcDbCircle
 10
-32.5418727016
 20
344.2526936351
 30
0.0
 40
2.000000000000007
100
AcDbArc
 50
144.3146652873
 51
180.0
  0
ARC
  5
2B4
330
1F
100
AcDbEntity
  8
0
  6
SLD-Solid
 62
     7
370
    15
100
AcDbCircle
 10
-32.5418727016
 20
344.2526936351
 30
0.0
 40
1.5
100
AcDbArc
 50
90.0
 51
180.0
  0
LINE
  5
2B5
330
1F
100
AcDbEntity
  8
0
  6
SLD-Solid
 62
     7
370
    15
100
AcDbLine
 10
-34.541875288
 20
344.2526936577
 30
0.0
 11
-34.0418742747
 21
344.2526936577
 31
0.0
  0
ARC
  5
2B6
330
1F
100
AcDbEntity
  8
0
  6
SLD-Solid
 62
     7
370
    15
100
AcDbCircle
 10
-32.5418727016
 20
362.2526936351
 30
0.0
 40
1.5
100
AcDbArc
 50
180.0
 51
270.0
  0
ARC
  5
2B7
330
1F
100
AcDbEntity
  8
0
  6
SLD-Solid
 62
     7
370
    15
100
AcDbCircle
 10
-32.5418727016
 20
362.2526936351
 30
0.0
 40
2.000000000000012
100
AcDbArc
 50
180.0
 51
215.6853347127
  0
LINE
  5
2B8
330
1F
100
AcDbEntity
  8
0
  6
SLD-Solid
 62
     7
370
    15
100
AcDbLine
 10
-34.0418742747
 20
362.2526938141
 30
0.0
 11
-34.541875288
 21
362.2526938141
 31
0.0
  0
LINE
  5
2B9
330
1F
100
AcDbEntity
  8
0
  6
SLD-Solid
 62
     7
370
    15
100
AcDbLine
 10
-46.5418698043
 20
368.7526930169
 30
0.0
 11
-46.5418698043
 21
337.7526935236
 31
0.0
  0
LWPOLYLINE
  5
2BA
330
1F
100
AcDbEntity
  8
0
  6
SLD-Solid
 62
     7
370
    15
100
AcDbPolyline
 90
        9
 70
   128
 43
0.0
 10
-46.5418698043
 20
337.7526935236
 10
-46.6394202561
 20
337.6551486598
 10
-46.7332156152
 20
337.5613523693
 10
-46.8196572513
 20
337.4749088706
 10
-46.895429656
 20
337.3991401912
 10
-46.9576047511
 20
337.3369585768
 10
-47.0038132519
 20
337.2907538013
 10
-47.0322670192
 20
337.2623009653
 10
-47.0418708176
 20
337.2526934416
  0
LINE
  5
2BB
330
1F
100
AcDbEntity
  8
0
  6
SLD-Solid
 62
     7
370
    15
100
AcDbLine
 10
-47.0418708176
 20
337.2526934416
 30
0.0
 11
-47.0418708176
 21
369.2526940302
 31
0.0
  0
LWPOLYLINE
  5
2BC
330
1F
100
AcDbEntity
  8
0
  6
SLD-Solid
 62
     7
370
    15
100
AcDbPolyline
 90
        9
 70
   128
 43
0.0
 10
-46.5418698043
 20
368.7526930169
 10
-46.6394202561
 20
368.8502378808
 10
-46.7332156152
 20
368.9440351025
 10
-46.8196572513
 20
369.0304786013
 10
-46.895429656
 20
369.1062472806
 10
-46.9576047511
 20
369.1684279637
 10
-47.0038132519
 20
369.2146327392
 10
-47.0322670192
 20
369.2430865065
 10
-47.0418708176
 20
369.2526940302
  0
LINE
  5
2BD
330
1F
100
AcDbEntity
  8
0
  6
SLD-Solid
 62
     7
370
    15
100
AcDbLine
 10
169.9581293612
 20
337.2526934416
 30
0.0
 11
169.9581293612
 21
369.2526940302
 31
0.0
  0
LWPOLYLINE
  5
2BE
330
1F
100
AcDbEntity
  8
0
  6
SLD-Solid
 62
     7
370
    15
100
AcDbPolyline
 90
        9
 70
   128
 43
0.0
 10
169.9581293612
 20
369.2526940302
 10
169.9677331596
 20
369.2430865065
 10
169.9961869269
 20
369.2146327392
 10
170.0423954278
 20
369.1684279637
 10
170.1045705228
 20
369.1062472806
 10
170.1803429275
 20
369.0304786013
 10
170.2667845636
 20
368.9440351025
 10
170.3605799227
 20
368.8502378808
 10
170.4581303745
 20
368.7526930169
  0
LINE
  5
2BF
330
1F
100
AcDbEntity
  8
0
  6
SLD-Solid
 62
     7
370
    15
100
AcDbLine
 10
170.4581303745
 20
368.7526930169
 30
0.0
 11
170.4581303745
 21
337.7526935236
 31
0.0
  0
LWPOLYLINE
  5
2C0
330
1F
100
AcDbEntity
  8
0
  6
SLD-Solid
 62
     7
370
    15
100
AcDbPolyline
 90
        9
 70
   128
 43
0.0
 10
169.9581293612
 20
337.2526934416
 10
169.9677331596
 20
337.2623009653
 10
169.9961869269
 20
337.2907538013
 10
170.0423954278
 20
337.3369585768
 10
170.1045705228
 20
337.3991401912
 10
170.1803429275
 20
337.4749088706
 10
170.2667845636
 20
337.5613523693
 10
170.3605799227
 20
337.6551486598
 10
170.4581303745
 20
337.7526935236
  0
LINE
  5
2C1
330
1F
100
AcDbEntity
  8
0
  6
SLD-Solid
 62
     7
370
    15
100
AcDbLine
 10
182.4581248909
 20
337.7526935236
 30
0.0
 11
182.9581259041
 21
337.7526935236
 31
0.0
  0
ARC
  5
2C2
330
1F
100
AcDbEntity
  8
0
  6
SLD-Solid
 62
     7
370
    15
100
AcDbCircle
 10
182.4581272984
 20
337.7526936351
 30
0.0
 40
0.5
100
AcDbArc
 50
270.0
 51
0.0
  0
LINE
  5
2C3
330
1F
100
AcDbEntity
  8
0
  6
SLD-Solid
 62
     7
370
    15
100
AcDbLine
 10
182.4581248909
 20
337.2526934416
 30
0.0
 11
182.4581248909
 21
337.7526935236
 31
0.0
  0
LINE
  5
2C4
330
1F
100
AcDbEntity
  8
0
  6
SLD-Solid
 62
     7
370
    15
100
AcDbLine
 10
-34.541875288
 20
337.7526935236
 30
0.0
 11
-34.541875288
 21
344.2526936577
 31
0.0
  0
LINE
  5
2C5
330
1F
100
AcDbEntity
  8
0
  6
SLD-Solid
 62
     7
370
    15
100
AcDbLine
 10
-34.0418742747
 20
344.2526936577
 30
0.0
 11
-34.0418742747
 21
337.2526934416
 31
0.0
  0
LWPOLYLINE
  5
2C6
330
1F
100
AcDbEntity
  8
0
  6
SLD-Solid
 62
     7
370
    15
100
AcDbPolyline
 90
        9
 70
   128
 43
0.0
 10
-34.541875288
 20
337.7526935236
 10
-34.4443248362
 20
337.6551486598
 10
-34.3505294771
 20
337.5613523693
 10
-34.264087841
 20
337.4749088706
 10
-34.1883228869
 20
337.3991401912
 10
-34.1261403412
 20
337.3369585768
 10
-34.0799318404
 20
337.2907538013
 10
-34.0514780731
 20
337.2623009653
 10
-34.0418742747
 20
337.2526934416
  0
LINE
  5
2C7
330
1F
100
AcDbEntity
  8
0
  6
SLD-Solid
 62
     7
370
    15
100
AcDbLine
 10
182.4581248909
 20
337.7526935236
 30
0.0
 11
182.4581248909
 21
368.7526930169
 31
0.0
  0
LINE
  5
2C8
330
1F
100
AcDbEntity
  8
0
  6
SLD-Solid
 62
     7
370
    15
100
AcDbLine
 10
170.4581303745
 20
337.7526935236
 30
0.0
 11
182.4581248909
 21
337.7526935236
 31
0.0
  0
LINE
  5
2C9
330
1F
100
AcDbEntity
  8
0
  6
SLD-Solid
 62
     7
370
    15
100
AcDbLine
 10
182.4581248909
 20
368.7526930169
 30
0.0
 11
170.4581303745
 21
368.7526930169
 31
0.0
  0
CIRCLE
  5
2CA
330
1F
100
AcDbEntity
  8
0
  6
SLD-Solid
 62
     7
370
    15
100
AcDbCircle
 10
177.4581272984
 20
363.2526936351
 30
0.0
 40
2.5
  0
CIRCLE
  5
2CB
330
1F
100
AcDbEntity
  8
0
  6
SLD-Solid
 62
     7
370
    15
100
AcDbCircle
 10
177.4581272984
 20
343.2526936351
 30
0.0
 40
2.5
  0
LINE
  5
2CC
330
1F
100
AcDbEntity
  8
0
  6
SLD-Solid
 62
     7
370
    15
100
AcDbLine
 10
182.4581248909
 20
368.7526930169
 30
0.0
 11
182.9581259041
 21
368.7526930169
 31
0.0
  0
LINE
  5
2CD
330
1F
100
AcDbEntity
  8
0
  6
SLD-Solid
 62
     7
370
    15
100
AcDbLine
 10
182.9581259041
 20
368.7526930169
 30
0.0
 11
182.9581259041
 21
337.7526935236
 31
0.0
  0
LINE
  5
2CE
330
1F
100
AcDbEntity
  8
0
  6
SLD-Solid
 62
     7
370
    15
100
AcDbLine
 10
182.4581248909
 20
337.2526934416
 30
0.0
 11
169.9581293612
 21
337.2526934416
 31
0.0
  0
LINE
  5
2CF
330
1F
100
AcDbEntity
  8
0
  6
SLD-Solid
 62
     7
370
    15
100
AcDbLine
 10
-46.5418698043
 20
337.7526935236
 30
0.0
 11
-34.541875288
 21
337.7526935236
 31
0.0
  0
LINE
  5
2D0
330
1F
100
AcDbEntity
  8
0
  6
SLD-Solid
 62
     7
370
    15
100
AcDbLine
 10
-34.0418742747
 20
337.2526934416
 30
0.0
 11
-47.0418708176
 21
337.2526934416
 31
0.0
  0
CIRCLE
  5
2D1
330
1F
100
AcDbEntity
  8
0
  6
SLD-Solid
 62
     7
370
    15
100
AcDbCircle
 10
-41.5418727016
 20
343.2526936351
 30
0.0
 40
2.5
  0
CIRCLE
  5
2D2
330
1F
100
AcDbEntity
  8
0
  6
SLD-Solid
 62
     7
370
    15
100
AcDbCircle
 10
-41.5418727016
 20
363.2526936351
 30
0.0
 40
2.5
  0
LINE
  5
2D3
330
1F
100
AcDbEntity
  8
0
  6
SLD-Solid
 62
     7
370
    15
100
AcDbLine
 10
-34.541875288
 20
368.7526930169
 30
0.0
 11
-46.5418698043
 21
368.7526930169
 31
0.0
  0
LINE
  5
2D4
330
1F
100
AcDbEntity
  8
0
  6
SLD-Solid
 62
     7
370
    15
100
AcDbLine
 10
-34.541875288
 20
362.2526938141
 30
0.0
 11
-34.541875288
 21
368.7526930169
 31
0.0
  0
CIRCLE
  5
2D5
330
1F
100
AcDbEntity
  8
0
  6
SLD-Solid
 62
     7
370
    15
100
AcDbCircle
 10
29.4581272984
 20
353.2526936351
 30
0.0
 40
14.0
  0
CIRCLE
  5
2D6
330
1F
100
AcDbEntity
  8
0
  6
SLD-Solid
 62
     7
370
    15
100
AcDbCircle
 10
29.4581272984
 20
353.2526936351
 30
0.0
 40
13.5
  0
CIRCLE
  5
2D7
330
1F
100
AcDbEntity
  8
0
  6
SLD-Solid
 62
     7
370
    15
100
AcDbCircle
 10
-41.5418727016
 20
343.2526936351
 30
0.0
 40
2.0
  0
CIRCLE
  5
2D8
330
1F
100
AcDbEntity
  8
0
  6
SLD-Solid
 62
     7
370
    15
100
AcDbCircle
 10
29.4581272984
 20
353.2526936351
 30
0.0
 40
6.600000000000023
  0
CIRCLE
  5
2D9
330
1F
100
AcDbEntity
  8
0
  6
SLD-Solid
 62
     7
370
    15
100
AcDbCircle
 10
21.2308859625
 20
358.0026936351
 30
0.0
 40
2.5
  0
CIRCLE
  5
2DA
330
1F
100
AcDbEntity
  8
0
  6
SLD-Solid
 62
     7
370
    15
100
AcDbCircle
 10
37.6853686344
 20
348.5026936351
 30
0.0
 40
2.5
  0
CIRCLE
  5
2DB
330
1F
100
AcDbEntity
  8
0
  6
SLD-Solid
 62
     7
370
    15
100
AcDbCircle
 10
177.4581272984
 20
343.2526936351
 30
0.0
 40
2.0
  0
CIRCLE
  5
2DC
330
1F
100
AcDbEntity
  8
0
  6
SLD-Solid
 62
     7
370
    15
100
AcDbCircle
 10
37.6853686344
 20
348.5026936351
 30
0.0
 40
2.0
  0
CIRCLE
  5
2DD
330
1F
100
AcDbEntity
  8
0
  6
SLD-Solid
 62
     7
370
    15
100
AcDbCircle
 10
29.4581272984
 20
353.2526936351
 30
0.0
 40
6.100000000000023
  0
CIRCLE
  5
2DE
330
1F
100
AcDbEntity
  8
0
  6
SLD-Solid
 62
     7
370
    15
100
AcDbCircle
 10
21.2308859625
 20
358.0026936351
 30
0.0
 40
2.0
  0
CIRCLE
  5
2DF
330
1F
100
AcDbEntity
  8
0
  6
SLD-Solid
 62
     7
370
    15
100
AcDbCircle
 10
-41.5418727016
 20
363.2526936351
 30
0.0
 40
2.0
  0
CIRCLE
  5
2E0
330
1F
100
AcDbEntity
  8
0
  6
SLD-Solid
 62
     7
370
    15
100
AcDbCircle
 10
177.4581272984
 20
363.2526936351
 30
0.0
 40
2.0
  0
LWPOLYLINE
  5
2E1
330
1F
100
AcDbEntity
  8
0
  6
SLD-Solid
 62
     7
370
    15
100
AcDbPolyline
 90
        9
 70
   128
 43
0.0
 10
-34.541875288
 20
368.7526930169
 10
-34.4443248362
 20
368.8502378808
 10
-34.3505294771
 20
368.9440351025
 10
-34.264087841
 20
369.0304786013
 10
-34.1883228869
 20
369.1062472806
 10
-34.1261403412
 20
369.1684279637
 10
-34.0799318404
 20
369.2146327392
 10
-34.0514780731
 20
369.2430865065
 10
-34.0418742747
 20
369.2526940302
  0
LINE
  5
2E2
330
1F
100
AcDbEntity
  8
0
  6
SLD-Solid
 62
     7
370
    15
100
AcDbLine
 10
-34.0418742747
 20
369.2526940302
 30
0.0
 11
-34.0418742747
 21
362.2526938141
 31
0.0
  0
LINE
  5
2E3
330
1F
100
AcDbEntity
  8
0
  6
SLD-Solid
 62
     7
370
    15
100
AcDbLine
 10
142.4581257849
 20
364.7526932926
 30
0.0
 11
154.4581277519
 21
364.7526932926
 31
0.0
  0
LWPOLYLINE
  5
2E4
330
1F
100
AcDbEntity
  8
0
  6
SLD-Solid
 62
     7
370
    15
100
AcDbPolyline
 90
       10
 70
   128
 43
0.0
 10
154.4581277519
 20
364.7526932926
 10
154.5449493676
 20
364.6658698143
 10
154.6291409283
 20
364.5816838415
 10
154.7081245332
 20
364.5026937173
 10
154.7795234471
 20
364.43129946
 10
154.8411471992
 20
364.3696710513
 10
154.891140595
 20
364.3196813808
 10
154.9279762655
 20
364.282847573
 10
154.950529173
 20
364.2602900089
 10
154.9581287652
 20
364.2526932107
  0
LINE
  5
2E5
330
1F
100
AcDbEntity
  8
0
  6
SLD-Solid
 62
     7
370
    15
100
AcDbLine
 10
154.9581287652
 20
364.2526932107
 30
0.0
 11
141.9581247716
 21
364.2526932107
 31
0.0
  0
LWPOLYLINE
  5
2E6
330
1F
100
AcDbEntity
  8
0
  6
SLD-Solid
 62
     7
370
    15
100
AcDbPolyline
 90
       10
 70
   128
 43
0.0
 10
142.4581257849
 20
364.7526932926
 10
142.3713041692
 20
364.6658698143
 10
142.2871200591
 20
364.5816838415
 10
142.2081290036
 20
364.5026937173
 10
142.1367300897
 20
364.43129946
 10
142.0751063376
 20
364.3696710513
 10
142.0251129418
 20
364.3196813808
 10
141.9882772713
 20
364.282847573
 10
141.9657243639
 20
364.2602900089
 10
141.9581247716
 20
364.2526932107
  0
LINE
  5
2E7
330
1F
100
AcDbEntity
  8
0
  6
SLD-Solid
 62
     7
370
    15
100
AcDbLine
 10
142.4581257849
 20
368.7526930169
 30
0.0
 11
142.4581257849
 21
364.7526932926
 31
0.0
  0
LINE
  5
2E8
330
1F
100
AcDbEntity
  8
0
  6
SLD-Solid
 62
     7
370
    15
100
AcDbLine
 10
141.9581247716
 20
364.2526932107
 30
0.0
 11
141.9581247716
 21
369.2526940302
 31
0.0
  0
LWPOLYLINE
  5
2E9
330
1F
100
AcDbEntity
  8
0
  6
SLD-Solid
 62
     7
370
    15
100
AcDbPolyline
 90
        9
 70
   128
 43
0.0
 10
141.9581247716
 20
369.2526940302
 10
141.9677360206
 20
369.2430865065
 10
141.9961897879
 20
369.2146327392
 10
142.0423908382
 20
369.1684279637
 10
142.1045733839
 20
369.1062472806
 10
142.1803457885
 20
369.0304786013
 10
142.2667874246
 20
368.9440351025
 10
142.3605827838
 20
368.8502378808
 10
142.4581257849
 20
368.7526930169
  0
LINE
  5
2EA
330
1F
100
AcDbEntity
  8
0
  6
SLD-Solid
 62
     7
370
    15
100
AcDbLine
 10
-6.5418706984
 20
364.7526932926
 30
0.0
 11
-6.5418706984
 21
368.7526930169
 31
0.0
  0
LWPOLYLINE
  5
2EB
330
1F
100
AcDbEntity
  8
0
  6
SLD-Solid
 62
     7
370
    15
100
AcDbPolyline
 90
        9
 70
   128
 43
0.0
 10
-6.0418696851
 20
369.2526940302
 10
-6.0514809341
 20
369.2430865065
 10
-6.0799347014
 20
369.2146327392
 10
-6.1261357517
 20
369.1684279637
 10
-6.1883182973
 20
369.1062472806
 10
-6.264090702
 20
369.0304786013
 10
-6.3505323381
 20
368.9440351025
 10
-6.4443276972
 20
368.8502378808
 10
-6.5418706984
 20
368.7526930169
  0
LINE
  5
2EC
330
1F
100
AcDbEntity
  8
0
  6
SLD-Solid
 62
     7
370
    15
100
AcDbLine
 10
-6.0418696851
 20
369.2526940302
 30
0.0
 11
-6.0418696851
 21
364.2526932107
 31
0.0
  0
LWPOLYLINE
  5
2ED
330
1F
100
AcDbEntity
  8
0
  6
SLD-Solid
 62
     7
370
    15
100
AcDbPolyline
 90
       10
 70
   128
 43
0.0
 10
-6.5418706984
 20
364.7526932926
 10
-6.4550490827
 20
364.6658698143
 10
-6.3708649725
 20
364.5816838415
 10
-6.291873917
 20
364.5026937173
 10
-6.2204824538
 20
364.43129946
 10
-6.1588512511
 20
364.3696710513
 10
-6.1088578553
 20
364.3196813808
 10
-6.0720296354
 20
364.282847573
 10
-6.0494692773
 20
364.2602900089
 10
-6.0418696851
 20
364.2526932107
  0
LINE
  5
2EE
330
1F
100
AcDbEntity
  8
0
  6
SLD-Solid
 62
     7
370
    15
100
AcDbLine
 10
154.4581277519
 20
368.7526930169
 30
0.0
 11
142.4581257849
 21
368.7526930169
 31
0.0
  0
LINE
  5
2EF
330
1F
100
AcDbEntity
  8
0
  6
SLD-Solid
 62
     7
370
    15
100
AcDbLine
 10
154.4581277519
 20
364.7526932926
 30
0.0
 11
154.4581277519
 21
368.7526930169
 31
0.0
  0
LWPOLYLINE
  5
2F0
330
1F
100
AcDbEntity
  8
0
  6
SLD-Solid
 62
     7
370
    15
100
AcDbPolyline
 90
        9
 70
   128
 43
0.0
 10
154.9581287652
 20
369.2526940302
 10
154.9485175162
 20
369.2430865065
 10
154.9200637489
 20
369.2146327392
 10
154.8738626986
 20
369.1684279637
 10
154.8116801529
 20
369.1062472806
 10
154.7359151989
 20
369.0304786013
 10
154.6494661122
 20
368.9440351025
 10
154.5556707531
 20
368.8502378808
 10
154.4581277519
 20
368.7526930169
  0
LINE
  5
2F1
330
1F
100
AcDbEntity
  8
0
  6
SLD-Solid
 62
     7
370
    15
100
AcDbLine
 10
154.9581287652
 20
369.2526940302
 30
0.0
 11
154.9581287652
 21
364.2526932107
 31
0.0
  0
LINE
  5
2F2
330
1F
100
AcDbEntity
  8
0
  6
SLD-Solid
 62
     7
370
    15
100
AcDbLine
 10
-18.5418726654
 20
364.7526932926
 30
0.0
 11
-6.5418706984
 21
364.7526932926
 31
0.0
  0
LINE
  5
2F3
330
1F
100
AcDbEntity
  8
0
  6
SLD-Solid
 62
     7
370
    15
100
AcDbLine
 10
-6.0418696851
 20
364.2526932107
 30
0.0
 11
-19.0418736786
 21
364.2526932107
 31
0.0
  0
LWPOLYLINE
  5
2F4
330
1F
100
AcDbEntity
  8
0
  6
SLD-Solid
 62
     7
370
    15
100
AcDbPolyline
 90
       10
 70
   128
 43
0.0
 10
-18.5418726654
 20
364.7526932926
 10
-18.628694281
 20
364.6658698143
 10
-18.7128858418
 20
364.5816838415
 10
-18.7918694467
 20
364.5026937173
 10
-18.8632683606
 20
364.43129946
 10
-18.9248921127
 20
364.3696710513
 10
-18.9748855085
 20
364.3196813808
 10
-19.011721179
 20
364.282847573
 10
-19.0342740864
 20
364.2602900089
 10
-19.0418736786
 20
364.2526932107
  0
LINE
  5
2F5
330
1F
100
AcDbEntity
  8
0
  6
SLD-Solid
 62
     7
370
    15
100
AcDbLine
 10
-18.5418726654
 20
368.7526930169
 30
0.0
 11
-18.5418726654
 21
364.7526932926
 31
0.0
  0
LINE
  5
2F6
330
1F
100
AcDbEntity
  8
0
  6
SLD-Solid
 62
     7
370
    15
100
AcDbLine
 10
-6.5418706984
 20
368.7526930169
 30
0.0
 11
-18.5418726654
 21
368.7526930169
 31
0.0
  0
LINE
  5
2F7
330
1F
100
AcDbEntity
  8
0
  6
SLD-Solid
 62
     7
370
    15
100
AcDbLine
 10
-19.0418736786
 20
364.2526932107
 30
0.0
 11
-19.0418736786
 21
369.2526940302
 31
0.0
  0
LWPOLYLINE
  5
2F8
330
1F
100
AcDbEntity
  8
0
  6
SLD-Solid
 62
     7
370
    15
100
AcDbPolyline
 90
        9
 70
   128
 43
0.0
 10
-19.0418736786
 20
369.2526940302
 10
-19.0322624297
 20
369.2430865065
 10
-19.0038161129
 20
369.2146327392
 10
-18.9576076121
 20
369.1684279637
 10
-18.8954250664
 20
369.1062472806
 10
-18.8196601123
 20
369.0304786013
 10
-18.7332110257
 20
368.9440351025
 10
-18.6394156665
 20
368.8502378808
 10
-18.5418726654
 20
368.7526930169
  0
LINE
  5
2F9
330
1F
100
AcDbEntity
  8
0
  6
SLD-Solid
 62
     7
370
    15
100
AcDbLine
 10
169.9581293612
 20
369.2526940302
 30
0.0
 11
182.4581248909
 21
369.2526940302
 31
0.0
  0
LINE
  5
2FA
330
1F
100
AcDbEntity
  8
0
  6
SLD-Solid
 62
     7
370
    15
100
AcDbLine
 10
182.4581248909
 20
368.7526930169
 30
0.0
 11
182.4581248909
 21
369.2526940302
 31
0.0
  0
LINE
  5
2FB
330
1F
100
AcDbEntity
  8
0
  6
SLD-Solid
 62
     7
370
    15
100
AcDbLine
 10
-47.0418708176
 20
369.2526940302
 30
0.0
 11
-34.0418742747
 21
369.2526940302
 31
0.0
  0
ARC
  5
2FC
330
1F
100
AcDbEntity
  8
0
  6
SLD-Solid
 62
     7
370
    15
100
AcDbCircle
 10
182.4581272984
 20
368.7526936351
 30
0.0
 40
0.5
100
AcDbArc
 50
0.0
 51
90.0
  0
LINE
  5
2FD
330
1F
100
AcDbEntity
  8
0
  6
SLD-Solid
 62
     7
370
    15
100
AcDbLine
 10
-19.0418736786
 20
369.2526940302
 30
0.0
 11
-6.0418696851
 21
369.2526940302
 31
0.0
  0
LINE
  5
2FE
330
1F
100
AcDbEntity
  8
0
  6
SLD-Solid
 62
     7
370
    15
100
AcDbLine
 10
141.9581247716
 20
369.2526940302
 30
0.0
 11
154.9581287652
 21
369.2526940302
 31
0.0
  0
LWPOLYLINE
  5
2FF
330
1F
100
AcDbEntity
  8
0
  6
SLD-Solid
 62
     7
370
    15
100
AcDbPolyline
 90
        9
 70
   128
 43
0.0
 10
-26.5069978089
 20
348.799568559
 10
-26.4992715568
 20
348.7938642082
 10
-26.4763759226
 20
348.7769704824
 10
-26.4391975254
 20
348.7495362804
 10
-26.3891594262
 20
348.7126158596
 10
-26.3281987757
 20
348.6676285555
 10
-26.2586401553
 20
348.6163026699
 10
-26.1831657738
 20
348.5606109769
 10
-26.1046739072
 20
348.5026936558
  0
SPLINE
  5
300
330
1F
100
AcDbEntity
  8
0
  6
SLD-Solid
 62
     7
370
    15
100
AcDbSpline
210
0.0
220
0.0
230
1.0
 70
     8
 71
     3
 72
     9
 73
     5
 74
     0
 42
0.00000001
 43
0.00000001
 40
0.0
 40
0.0
 40
0.0
 40
0.0
 40
0.3626072344690137
 40
1.0
 40
1.0
 40
1.0
 40
1.0
 10
-26.58893184370309
 20
348.2054988433778
 30
0.0
 10
-26.53074142175138
 20
348.2383851538656
 30
0.0
 10
-26.37026359224273
 20
348.3290791813465
 30
0.0
 10
-26.20806079606075
 20
348.4351102315215
 30
0.0
 10
-26.10467390722543
 20
348.5026936558247
 30
0.0
  0
LWPOLYLINE
  5
301
330
1F
100
AcDbEntity
  8
0
  6
SLD-Solid
 62
     7
370
    15
100
AcDbPolyline
 90
        9
 70
   128
 43
0.0
 10
-26.960991487
 20
348.2423284603
 10
-26.9337596149
 20
348.2647705403
 10
-26.8992634267
 20
348.2796994084
 10
-26.8582256288
 20
348.2868002773
 10
-26.8115104885
 20
348.2859234371
 10
-26.7601089329
 20
348.2770875142
 10
-26.7050938458
 20
348.2604787731
 10
-26.6476349682
 20
348.2364469254
 10
-26.5889318437
 20
348.2054988434
  0
LWPOLYLINE
  5
302
330
1F
100
AcDbEntity
  8
0
  6
SLD-Solid
 62
     7
370
    15
100
AcDbPolyline
 90
        9
 70
   128
 43
0.0
 10
1.0209305435
 20
358.0026935832
 10
1.0994224101
 20
357.9447760293
 10
1.1748967915
 20
357.8890843363
 10
1.2444479614
 20
357.8377586835
 10
1.3054160624
 20
357.7927711466
 10
1.3554541617
 20
357.7558511914
 10
1.3926325589
 20
357.7284167567
 10
1.4155281931
 20
357.7115230308
 10
1.4232544451
 20
357.70581868
  0
SPLINE
  5
303
330
1F
100
AcDbEntity
  8
0
  6
SLD-Solid
 62
     7
370
    15
100
AcDbSpline
210
0.0
220
0.0
230
1.0
 70
     8
 71
     3
 72
     9
 73
     5
 74
     0
 42
0.00000001
 43
0.00000001
 40
0.0
 40
0.0
 40
0.0
 40
0.0
 40
0.6373927655309863
 40
1.0
 40
1.0
 40
1.0
 40
1.0
 10
1.020930543477239
 20
358.0026935831815
 30
0.0
 10
1.124317432312533
 20
358.0702770074846
 30
0.0
 10
1.286520228494514
 20
358.1763080576595
 30
0.0
 10
1.446998058003163
 20
358.2670020851406
 30
0.0
 10
1.5051884799549
 20
358.2998883956283
 30
0.0
  0
LWPOLYLINE
  5
304
330
1F
100
AcDbEntity
  8
0
  6
SLD-Solid
 62
     7
370
    15
100
AcDbPolyline
 90
        9
 70
   128
 43
0.0
 10
1.8772481232
 20
358.2630587788
 10
1.8500162511
 20
358.2406166987
 10
1.815520063
 20
358.2256880635
 10
1.7744822651
 20
358.2185871945
 10
1.7277671247
 20
358.219463569
 10
1.6763581186
 20
358.2282999576
 10
1.621350482
 20
358.2449086988
 10
1.5638841539
 20
358.2689405465
 10
1.50518848
 20
358.2998883956
  0
SPLINE
  5
305
330
1F
100
AcDbEntity
  8
0
  6
SLD-Solid
 62
     7
370
    15
100
AcDbSpline
210
0.0
220
0.0
230
1.0
 70
     8
 71
     3
 72
     9
 73
     5
 74
     0
 42
0.00000001
 43
0.00000001
 40
0.0
 40
0.0
 40
0.0
 40
0.0
 40
0.3635790716115188
 40
1.0
 40
1.0
 40
1.0
 40
1.0
 10
1.020930543477211
 20
348.5026936558247
 30
0.0
 10
1.07951007572904
 20
348.4638146125349
 30
0.0
 10
1.240629174229874
 20
348.3568803956741
 30
0.0
 10
1.402298645168221
 20
348.2643726859094
 30
0.0
 10
1.5051884799549
 20
348.2054988433778
 30
0.0
  0
LWPOLYLINE
  5
306
330
1F
100
AcDbEntity
  8
0
  6
SLD-Solid
 62
     7
370
    15
100
AcDbPolyline
 90
        9
 70
   128
 43
0.0
 10
1.0209305435
 20
348.5026936558
 10
1.0994224101
 20
348.5606109769
 10
1.1748967915
 20
348.6163026699
 10
1.2444479614
 20
348.6676285555
 10
1.3054160624
 20
348.7126158596
 10
1.3554541617
 20
348.7495362804
 10
1.3926325589
 20
348.7769704824
 10
1.4155281931
 20
348.7938642082
 10
1.4232544451
 20
348.799568559
  0
LWPOLYLINE
  5
307
330
1F
100
AcDbEntity
  8
0
  6
SLD-Solid
 62
     7
370
    15
100
AcDbPolyline
 90
        9
 70
   128
 43
0.0
 10
1.50518848
 20
348.2054988434
 10
1.5638841539
 20
348.2364469254
 10
1.621350482
 20
348.2604787731
 10
1.6763581186
 20
348.2770875142
 10
1.7277671247
 20
348.2859234371
 10
1.7744822651
 20
348.2868002773
 10
1.815520063
 20
348.2796994084
 10
1.8500162511
 20
348.2647705403
 10
1.8772481232
 20
348.2423284603
  0
LWPOLYLINE
  5
308
330
1F
100
AcDbEntity
  8
0
  6
SLD-Solid
 62
     7
370
    15
100
AcDbPolyline
 90
        9
 70
   128
 43
0.0
 10
-26.960991487
 20
358.2630587788
 10
-26.9337596149
 20
358.2406166987
 10
-26.8992634267
 20
358.2256880635
 10
-26.8582256288
 20
358.2185871945
 10
-26.8115104885
 20
358.219463569
 10
-26.7601089329
 20
358.2282999576
 10
-26.7050938458
 20
358.2449086988
 10
-26.6476349682
 20
358.2689405465
 10
-26.5889318437
 20
358.2998883956
  0
SPLINE
  5
309
330
1F
100
AcDbEntity
  8
0
  6
SLD-Solid
 62
     7
370
    15
100
AcDbSpline
210
0.0
220
0.0
230
1.0
 70
     8
 71
     3
 72
     9
 73
     5
 74
     0
 42
0.00000001
 43
0.00000001
 40
0.0
 40
0.0
 40
0.0
 40
0.0
 40
0.6364209283884813
 40
1.0
 40
1.0
 40
1.0
 40
1.0
 10
-26.58893184370309
 20
358.2998883956283
 30
0.0
 10
-26.48604200891647
 20
358.2410145530968
 30
0.0
 10
-26.32437253797809
 20
358.148506843332
 30
0.0
 10
-26.16325343947728
 20
358.0415726264712
 30
0.0
 10
-26.10467390722546
 20
358.0026935831815
 30
0.0
  0
LWPOLYLINE
  5
30A
330
1F
100
AcDbEntity
  8
0
  6
SLD-Solid
 62
     7
370
    15
100
AcDbPolyline
 90
        9
 70
   128
 43
0.0
 10
-26.5069978089
 20
357.70581868
 10
-26.4992715568
 20
357.7115230308
 10
-26.4763759226
 20
357.7284167567
 10
-26.4391975254
 20
357.7558511914
 10
-26.3891594262
 20
357.7927711466
 10
-26.3281987757
 20
357.8377586835
 10
-26.2586401553
 20
357.8890843363
 10
-26.1831657738
 20
357.9447760293
 10
-26.1046739072
 20
358.0026935832
  0
ARC
  5
30B
330
1F
100
AcDbEntity
  8
0
  6
SLD-Solid
 62
     7
370
    15
100
AcDbCircle
 10
-32.5418727016
 20
353.2526936351
 30
0.0
 40
8.000000000000014
100
AcDbArc
 50
323.5764263577
 51
36.4235736423
  0
ARC
  5
30C
330
1F
100
AcDbEntity
  8
0
  6
SLD-Solid
 62
     7
370
    15
100
AcDbCircle
 10
7.4581272984
 20
353.2526936351
 30
0.0
 40
8.000000000000039
100
AcDbArc
 50
143.5764263577
 51
216.4235736423
  0
SPLINE
  5
30D
330
1F
100
AcDbEntity
  8
0
  6
SLD-Solid
 62
     7
370
    15
100
AcDbSpline
210
0.0
220
0.0
230
1.0
 70
     8
 71
     3
 72
    11
 73
     7
 74
     0
 42
0.00000001
 43
0.00000001
 40
0.0
 40
0.0
 40
0.0
 40
0.0
 40
0.3834731281585175
 40
0.8530727983253634
 40
0.9937756932883165
 40
1.0
 40
1.0
 40
1.0
 40
1.0
 10
1.5051884799549
 20
348.2054988433778
 30
0.0
 10
1.640345325440218
 20
348.1453955323168
 30
0.0
 10
1.941014707268013
 20
348.0116899451701
 30
0.0
 10
2.270128174859165
 20
347.8165961140216
 30
0.0
 10
2.453244551318623
 20
347.666495910814
 30
0.0
 10
2.49555273501556
 20
347.629270723364
 30
0.0
 10
2.497345045144261
 20
347.6276937452316
 30
0.0
  0
SPLINE
  5
30E
330
1F
100
AcDbEntity
  8
0
  6
SLD-Solid
 62
     7
370
    15
100
AcDbSpline
210
0.0
220
0.0
230
1.0
 70
     8
 71
     3
 72
    13
 73
     9
 74
     0
 42
0.00000001
 43
0.00000001
 40
0.0
 40
0.0
 40
0.0
 40
0.0
 40
0.0062241782053195
 40
0.1398780274355474
 40
0.1469275425102529
 40
0.6165126211274107
 40
0.9410347063608614
 40
1.0
 40
1.0
 40
1.0
 40
1.0
 10
-27.58108840889245
 20
347.6276937452316
 30
0.0
 10
-27.57929610830517
 20
347.629270749945
 30
0.0
 10
-27.53901714095375
 20
347.6647113014986
 30
0.0
 10
-27.49542575498218
 20
347.7005112185444
 30
0.0
 10
-27.30966625472181
 20
347.8429536208569
 30
0.0
 10
-27.04407939622422
 20
348.001358402293
 30
0.0
 10
-26.74515754182555
 20
348.134162954252
 30
0.0
 10
-26.60975191042681
 20
348.1959919697376
 30
0.0
 10
-26.58893184370312
 20
348.2054988433778
 30
0.0
  0
SPLINE
  5
30F
330
1F
100
AcDbEntity
  8
0
  6
SLD-Solid
 62
     7
370
    15
100
AcDbSpline
210
0.0
220
0.0
230
1.0
 70
     8
 71
     3
 72
    13
 73
     9
 74
     0
 42
0.00000001
 43
0.00000001
 40
0.0
 40
0.0
 40
0.0
 40
0.0
 40
0.0589652378171277
 40
0.3834822772612694
 40
0.8530724085472967
 40
0.8601219259702382
 40
0.9937758197213693
 40
0.9999999999999999
 40
0.9999999999999999
 40
0.9999999999999999
 40
0.9999999999999999
 10
1.5051884799549
 20
358.2998883956283
 30
0.0
 10
1.526008565851333
 20
358.3093951643934
 30
0.0
 10
1.661412648797822
 20
358.3712227338291
 30
0.0
 10
1.960329662864413
 20
358.5040336411033
 30
0.0
 10
2.2259214153246
 20
358.6624324580229
 30
0.0
 10
2.41168238736883
 20
358.8048760250289
 30
0.0
 10
2.455273777264261
 20
358.8406759374381
 30
0.0
 10
2.495552744559454
 20
358.8761164890582
 30
0.0
 10
2.497345045144261
 20
358.8776934937745
 30
0.0
  0
SPLINE
  5
310
330
1F
100
AcDbEntity
  8
0
  6
SLD-Solid
 62
     7
370
    15
100
AcDbSpline
210
0.0
220
0.0
230
1.0
 70
     8
 71
     3
 72
    11
 73
     7
 74
     0
 42
0.00000001
 43
0.00000001
 40
0.0
 40
0.0
 40
0.0
 40
0.0
 40
0.0062243045682375
 40
0.1469271510777499
 40
0.6165217631849228
 40
1.0
 40
1.0
 40
1.0
 40
1.0
 10
-27.58108840889245
 20
358.8776934937745
 30
0.0
 10
-27.57929609881221
 20
358.876116515588
 30
0.0
 10
-27.53698791625916
 20
358.8388913268592
 30
0.0
 10
-27.35387265904377
 20
358.688792690339
 30
0.0
 10
-27.02476356169381
 20
358.4936937061336
 30
0.0
 10
-26.72409162860073
 20
358.3599911440025
 30
0.0
 10
-26.58893184370309
 20
358.2998883956283
 30
0.0
  0
LINE
  5
311
330
1F
100
AcDbEntity
  8
0
  6
SLD-Solid
 62
     7
370
    15
100
AcDbLine
 10
-26.5889318437
 20
348.2054988434
 30
0.0
 11
-26.5889318437
 21
348.0026935739
 31
0.0
  0
LINE
  5
312
330
1F
100
AcDbEntity
  8
0
  6
SLD-Solid
 62
     7
370
    15
100
AcDbLine
 10
-26.1046739072
 20
348.5026936558
 30
0.0
 11
1.0209305435
 21
348.5026936558
 31
0.0
  0
LINE
  5
313
330
1F
100
AcDbEntity
  8
0
  6
SLD-Solid
 62
     7
370
    15
100
AcDbLine
 10
1.50518848
 20
348.0026935739
 30
0.0
 11
1.50518848
 21
348.2054988434
 31
0.0
  0
LINE
  5
314
330
1F
100
AcDbEntity
  8
0
  6
SLD-Solid
 62
     7
370
    15
100
AcDbLine
 10
1.50518848
 20
348.0026935739
 30
0.0
 11
-26.5889318437
 21
348.0026935739
 31
0.0
  0
LINE
  5
315
330
1F
100
AcDbEntity
  8
0
  6
SLD-Solid
 62
     7
370
    15
100
AcDbLine
 10
1.0209305435
 20
358.0026935832
 30
0.0
 11
-26.1046739072
 21
358.0026935832
 31
0.0
  0
LINE
  5
316
330
1F
100
AcDbEntity
  8
0
  6
SLD-Solid
 62
     7
370
    15
100
AcDbLine
 10
-26.5889318437
 20
358.2998883956
 30
0.0
 11
-26.5889318437
 21
358.5026936651
 31
0.0
  0
LINE
  5
317
330
1F
100
AcDbEntity
  8
0
  6
SLD-Solid
 62
     7
370
    15
100
AcDbLine
 10
-26.5889318437
 20
358.5026936651
 30
0.0
 11
1.50518848
 21
358.5026936651
 31
0.0
  0
LINE
  5
318
330
1F
100
AcDbEntity
  8
0
  6
SLD-Solid
 62
     7
370
    15
100
AcDbLine
 10
1.50518848
 20
358.2998883956
 30
0.0
 11
1.50518848
 21
358.5026936651
 31
0.0
  0
ARC
  5
319
330
1F
100
AcDbEntity
  8
0
  6
SLD-Solid
 62
     7
370
    15
100
AcDbCircle
 10
1.5051868485
 20
346.5026936351
 30
0.0
 40
1.5
100
AcDbArc
 50
48.5903778907
 51
90.0
  0
ARC
  5
31A
330
1F
100
AcDbEntity
  8
0
  6
SLD-Solid
 62
     7
370
    15
100
AcDbCircle
 10
-26.5889322517
 20
346.5026936351
 30
0.0
 40
1.5
100
AcDbArc
 50
90.0
 51
131.4096221093
  0
ARC
  5
31B
330
1F
100
AcDbEntity
  8
0
  6
SLD-Solid
 62
     7
370
    15
100
AcDbCircle
 10
1.5051868485
 20
360.0026936351
 30
0.0
 40
1.5
100
AcDbArc
 50
270.0
 51
311.4096221093
  0
ARC
  5
31C
330
1F
100
AcDbEntity
  8
0
  6
SLD-Solid
 62
     7
370
    15
100
AcDbCircle
 10
-26.5889322517
 20
360.0026936351
 30
0.0
 40
1.5
100
AcDbArc
 50
228.5903778907
 51
270.0
  0
CIRCLE
  5
31D
330
1F
100
AcDbEntity
  8
0
  6
SLD-Solid
 62
     7
370
    15
100
AcDbCircle
 10
37.6853686344
 20
348.5026936351
 30
0.0
 40
0.5
  0
CIRCLE
  5
31E
330
1F
100
AcDbEntity
  8
0
  6
SLD-Solid
 62
     7
370
    15
100
AcDbCircle
 10
21.2308859625
 20
358.0026936351
 30
0.0
 40
0.5
  0
SPLINE
  5
31F
330
1F
100
AcDbEntity
  8
0
  6
SLD-Solid
 62
     7
370
    15
100
AcDbSpline
210
0.0
220
0.0
230
1.0
 70
     8
 71
     3
 72
    12
 73
     8
 74
     0
 42
0.00000001
 43
0.00000001
 40
0.0
 40
0.0
 40
0.0
 40
0.0
 40
0.1981409624748502
 40
0.5097851703853236
 40
0.8747803364138195
 40
0.9956370264267692
 40
0.9999999999999999
 40
0.9999999999999999
 40
0.9999999999999999
 40
0.9999999999999999
 10
13.94639147811619
 20
348.5726892993957
 30
0.0
 10
13.85003511462316
 20
348.5102750951817
 30
0.0
 10
13.60212552254547
 20
348.3496932784171
 30
0.0
 10
13.159512312761
 20
348.1656846653322
 30
0.0
 10
12.78156706103939
 20
347.9416409618356
 30
0.0
 10
12.5755766278795
 20
347.7692729081685
 30
0.0
 10
12.52499248236325
 20
347.723054534485
 30
0.0
 10
12.52323000126568
 20
347.7214441680521
 30
0.0
  0
LWPOLYLINE
  5
320
330
1F
100
AcDbEntity
  8
0
  6
SLD-Solid
 62
     7
370
    15
100
AcDbPolyline
 90
        9
 70
   128
 43
0.0
 10
13.5408750027
 20
348.865189664
 10
13.5486645847
 20
348.8595693651
 10
13.5717427581
 20
348.8429244188
 10
13.6092154532
 20
348.8158944109
 10
13.6596484333
 20
348.7795183481
 10
13.7210970967
 20
348.7351939128
 10
13.7912070602
 20
348.6846242611
 10
13.867277488
 20
348.6297532962
 10
13.9463914781
 20
348.5726892994
  0
SPLINE
  5
321
330
1F
100
AcDbEntity
  8
0
  6
SLD-Solid
 62
     7
370
    15
100
AcDbSpline
210
0.0
220
0.0
230
1.0
 70
     8
 71
     3
 72
    12
 73
     8
 74
     0
 42
0.00000001
 43
0.00000001
 40
0.0
 40
0.0
 40
0.0
 40
0.0
 40
0.0043628037506009
 40
0.1252195787205899
 40
0.4902147568474751
 40
0.8018590309574286
 40
1.0
 40
1.0
 40
1.0
 40
1.0
 10
12.52323000126568
 20
358.7839428381234
 30
0.0
 10
12.52499248373645
 20
358.7823326287463
 30
0.0
 10
12.57557860337596
 20
358.7361169950898
 30
0.0
 10
12.78156419728385
 20
358.5637424753531
 30
0.0
 10
13.15951327886272
 20
358.3397038659655
 30
0.0
 10
13.60212535521999
 20
358.1556935391403
 30
0.0
 10
13.85003507539495
 20
357.9951118532759
 30
0.0
 10
13.94639147811619
 20
357.9326977067798
 30
0.0
  0
LWPOLYLINE
  5
322
330
1F
100
AcDbEntity
  8
0
  6
SLD-Solid
 62
     7
370
    15
100
AcDbPolyline
 90
        9
 70
   128
 43
0.0
 10
13.5408750027
 20
357.6401976914
 10
13.5486645847
 20
357.6458177575
 10
13.5717427581
 20
357.6624628202
 10
13.6092154532
 20
357.689493061
 10
13.6596484333
 20
357.7258691237
 10
13.7210970967
 20
357.770193559
 10
13.7912070602
 20
357.8207629779
 10
13.867277488
 20
357.87563371
 10
13.9463914781
 20
357.9326977068
  0
ARC
  5
323
330
1F
100
AcDbEntity
  8
0
  6
SLD-Solid
 62
     7
370
    15
100
AcDbCircle
 10
29.4581272984
 20
353.2526936351
 30
0.0
 40
14.50000000000001
100
AcDbArc
 50
188.9396136755
 51
171.0603863245
  0
SPLINE
  5
324
330
1F
100
AcDbEntity
  8
0
  6
SLD-Solid
 62
     7
370
    15
100
AcDbSpline
210
0.0
220
0.0
230
1.0
 70
     8
 71
     3
 72
    12
 73
     8
 74
     0
 42
0.00000001
 43
0.00000001
 40
0.0
 40
0.0
 40
0.0
 40
0.0
 40
0.0015173480893341
 40
0.003743344520365
 40
0.7765673308384038
 40
0.9984826164826288
 40
1.0
 40
1.0
 40
1.0
 40
1.0
 10
15.13426361971584
 20
350.9994891372448
 30
0.0
 10
15.13441163839396
 20
351.0017647554758
 30
0.0
 10
15.13477680503671
 20
351.0073787758153
 30
0.0
 10
15.2095891276979
 20
352.1720803409354
 30
0.0
 10
15.2323182482785
 20
353.6744177777185
 30
0.0
 10
15.15618099808616
 20
355.1685308366443
 30
0.0
 10
15.13441146172917
 20
355.5036226332709
 30
0.0
 10
15.13426361971584
 20
355.5058983200401
 30
0.0
  0
ARC
  5
325
330
1F
100
AcDbEntity
  8
0
  6
SLD-Solid
 62
     7
370
    15
100
AcDbCircle
 10
7.4581272984
 20
353.2526936351
 30
0.0
 40
8.000000000000044
100
AcDbArc
 50
324.1969722049
 51
343.6412598244
  0
ARC
  5
326
330
1F
100
AcDbEntity
  8
0
  6
SLD-Solid
 62
     7
370
    15
100
AcDbCircle
 10
7.4581272984
 20
353.2526936351
 30
0.0
 40
8.000000000000012
100
AcDbArc
 50
16.3587401756
 51
35.8030277951
  0
ARC
  5
327
330
1F
100
AcDbEntity
  8
0
  6
SLD-Solid
 62
     7
370
    15
100
AcDbCircle
 10
13.5362522984
 20
346.6151943707
 30
0.0
 40
1.999999999999999
100
AcDbArc
 50
22.6302423628
 51
78.1664545226
  0
LWPOLYLINE
  5
328
330
1F
100
AcDbEntity
  8
0
  6
SLD-Solid
 62
     7
370
    15
100
AcDbPolyline
 90
        9
 70
   128
 43
0.0
 10
15.3822673708
 20
347.3847594158
 10
15.2922308295
 20
347.3472257191
 10
15.2056588083
 20
347.311134641
 10
15.1258705407
 20
347.2778726881
 10
15.0559356659
 20
347.2487183334
 10
14.9985401183
 20
347.2247919579
 10
14.9558929949
 20
347.2070132428
 10
14.9296296983
 20
347.1960650803
 10
14.9207635074
 20
347.1923681953
  0
ARC
  5
329
330
1F
100
AcDbEntity
  8
0
  6
SLD-Solid
 62
     7
370
    15
100
AcDbCircle
 10
13.5362522984
 20
346.6151943707
 30
0.0
 40
1.499999999999997
100
AcDbArc
 50
22.6302423628
 51
132.48111981
  0
ARC
  5
32A
330
1F
100
AcDbEntity
  8
0
  6
SLD-Solid
 62
     7
370
    15
100
AcDbCircle
 10
13.5362522984
 20
359.8901928994
 30
0.0
 40
2.000000000000031
100
AcDbArc
 50
281.8335454774
 51
337.3697576372
  0
ARC
  5
32B
330
1F
100
AcDbEntity
  8
0
  6
SLD-Solid
 62
     7
370
    15
100
AcDbCircle
 10
13.5362522984
 20
359.8901928994
 30
0.0
 40
1.500000000000039
100
AcDbArc
 50
227.51888019
 51
337.3697576372
  0
LWPOLYLINE
  5
32C
330
1F
100
AcDbEntity
  8
0
  6
SLD-Solid
 62
     7
370
    15
100
AcDbPolyline
 90
        9
 70
   128
 43
0.0
 10
15.3822673708
 20
359.120628056
 10
15.2922308295
 20
359.1581612871
 10
15.2056588083
 20
359.1942528309
 10
15.1258705407
 20
359.2275150166
 10
15.0559356659
 20
359.2566691385
 10
14.9985401183
 20
359.2805948154
 10
14.9558929949
 20
359.2983737634
 10
14.9296296983
 20
359.3093223916
 10
14.9207635074
 20
359.3130188109
  0
ARC
  5
32D
330
1F
100
AcDbEntity
  8
0
  6
SLD-Solid
 62
     7
370
    15
100
AcDbCircle
 10
29.4581272984
 20
353.2526936351
 30
0.0
 40
15.25000000000001
100
AcDbArc
 50
202.6302423628
 51
157.3697576372
  0
ARC
  5
32E
330
1F
100
AcDbEntity
  8
0
  6
SLD-Solid
 62
     7
370
    15
100
AcDbCircle
 10
29.4581272984
 20
353.2526936351
 30
0.0
 40
15.75000000000002
100
AcDbArc
 50
202.6302423628
 51
157.3697576372
  0
SPLINE
  5
32F
330
1F
100
AcDbEntity
  8
0
  6
SLD-Solid
 62
     7
370
    15
100
AcDbSpline
210
0.0
220
0.0
230
1.0
 70
     8
 71
     3
 72
    45
 73
    41
 74
     0
 42
0.00000001
 43
0.00000001
 40
0.0
 40
0.0
 40
0.0
 40
0.0
 40
0.0128160643573333
 40
0.0408266839775985
 40
0.0696461498145397
 40
0.108311680634886
 40
0.1480328011909881
 40
0.1805122019690073
 40
0.2048921194332229
 40
0.2219640099120491
 40
0.2389807404297761
 40
0.2546716377884753
 40
0.2706809199324814
 40
0.307546576975854
 40
0.3452672987258023
 40
0.3761358129286604
 40
0.4077469029535403
 40
0.430460205699817
 40
0.4537698717997225
 40
0.4721451990576637
 40
0.4910267370607828
 40
0.499682627086338
 40
0.5058595336766873
 40
0.5268559959806842
 40
0.5486613303291387
 40
0.5698990209541945
 40
0.5916674765113006
 40
0.62283841313601
 40
0.6548861344905127
 40
0.6952661353294016
 40
0.7367525824131205
 40
0.7634164357842607
 40
0.7808556887452826
 40
0.7983579293873663
 40
0.8266927170867868
 40
0.85894012454729
 40
0.8918140742540106
 40
0.9292904577713267
 40
0.967983390839104
 40
1.0
 40
1.0
 40
1.0
 40
1.0
 10
13.53625191741673
 20
359.3370683537036
 30
0.0
 10
13.71592603137459
 20
359.7071344697067
 30
0.0
 10
14.28829349653285
 20
360.8860121616116
 30
0.0
 10
15.51383735405185
 20
362.6663700501836
 30
0.0
 10
17.45830472724752
 20
364.7312077442128
 30
0.0
 10
19.93070640543237
 20
366.5563301305829
 30
0.0
 10
22.74426392633405
 20
367.9102893739463
 30
0.0
 10
25.42642460926284
 20
368.6884406919287
 30
0.0
 10
27.74946723453764
 20
369.0273454553854
 30
0.0
 10
29.78038328069109
 20
369.0906944746258
 30
0.0
 10
31.47007120557534
 20
368.980217380665
 30
0.0
 10
32.98574231362242
 20
368.7501643498331
 30
0.0
 10
34.97664975626115
 20
368.2879453138544
 30
0.0
 10
37.38867719568162
 20
367.3959828449755
 30
0.0
 10
39.96352459145484
 20
365.8968477961521
 30
0.0
 10
42.18597311265723
 20
364.0341692089947
 30
0.0
 10
43.85299958433676
 20
362.0807901354183
 30
0.0
 10
45.11959406936927
 20
359.9982416366668
 30
0.0
 10
45.9423288063912
 20
358.0621175872556
 30
0.0
 10
46.46882381935819
 20
356.095969981166
 30
0.0
 10
46.67561129712314
 20
354.5351898240297
 30
0.0
 10
46.71433791756713
 20
353.3779503154033
 30
0.0
 10
46.69084711012618
 20
352.1480750896887
 30
0.0
 10
46.49544992019994
 20
350.4748792586343
 30
0.0
 10
45.9285991791739
 20
348.3965727236714
 30
0.0
 10
45.0880584104138
 20
346.4608126293955
 30
0.0
 10
43.88098443217446
 20
344.4682422902946
 30
0.0
 10
42.22626304897978
 20
342.5082501766678
 30
0.0
 10
39.93214199595172
 20
340.5746766915615
 30
0.0
 10
37.13943387105323
 20
338.9745633579473
 30
0.0
 10
34.22106802249905
 20
337.9685148790285
 30
0.0
 10
31.6042293389493
 20
337.519091786282
 30
0.0
 10
29.48843069723453
 20
337.4102982855505
 30
0.0
 10
27.31042187025096
 20
337.5152783099136
 30
0.0
 10
24.9246837019437
 20
337.9296192648662
 30
0.0
 10
22.38116013015992
 20
338.7575181737922
 30
0.0
 10
19.79553002104543
 20
340.0519095101872
 30
0.0
 10
17.29051406031462
 20
341.9092407566228
 30
0.0
 10
15.07235157598187
 20
344.274209166671
 30
0.0
 10
14.01500734371475
 20
346.2663134509503
 30
0.0
 10
13.53625191741673
 20
347.1683193509638
 30
0.0
  0
LWPOLYLINE
  5
330
330
1F
100
AcDbEntity
  8
0
  6
SLD-Solid
 62
     7
370
    15
100
AcDbPolyline
 90
        9
 70
   128
 43
0.0
 10
13.5362519174
 20
347.168319351
 10
13.7846617251
 20
347.2490014554
 10
14.0251739173
 20
347.3095306707
 10
14.2501404732
 20
347.3479824186
 10
14.4524088352
 20
347.3631338728
 10
14.6255454271
 20
347.3545030737
 10
14.7640442699
 20
347.3223649942
 10
14.8635057955
 20
347.2677410626
 10
14.9207635074
 20
347.1923681953
  0
LWPOLYLINE
  5
331
330
1F
100
AcDbEntity
  8
0
  6
SLD-Solid
 62
     7
370
    15
100
AcDbPolyline
 90
        9
 70
   128
 43
0.0
 10
13.5362519174
 20
359.3370683537
 10
13.7846617251
 20
359.2563860164
 10
14.0251739173
 20
359.1958565683
 10
14.2501404732
 20
359.1574050532
 10
14.4524088352
 20
359.1422533662
 10
14.6255454271
 20
359.1508839325
 10
14.7640442699
 20
359.1830220119
 10
14.8635057955
 20
359.2376459436
 10
14.9207635074
 20
359.3130188109
  0
SPLINE
  5
332
330
1F
100
AcDbEntity
  8
0
  6
SLD-Solid
 62
     7
370
    15
100
AcDbSpline
210
0.0
220
0.0
230
1.0
 70
     8
 71
     3
 72
    11
 73
     7
 74
     0
 42
0.00000001
 43
0.00000001
 40
0.0
 40
0.0
 40
0.0
 40
0.0
 40
0.1784814474206129
 40
0.5136174392717527
 40
0.8618310899424629
 40
1.0
 40
1.0
 40
1.0
 40
1.0
 10
33.34483860426632
 20
368.5021672443658
 30
0.0
 10
33.12596447847277
 20
368.5606937819058
 30
0.0
 10
32.49610871678116
 20
368.7291160508595
 30
0.0
 10
31.32186873511328
 20
368.9061066919217
 30
0.0
 10
30.07075855225894
 20
369.0229855944812
 30
0.0
 10
29.32428497306563
 20
368.9890897091977
 30
0.0
 10
29.11223082237926
 20
368.9794607506305
 30
0.0
  0
SPLINE
  5
333
330
1F
100
AcDbEntity
  8
0
  6
SLD-Solid
 62
     7
370
    15
100
AcDbSpline
210
0.0
220
0.0
230
1.0
 70
     8
 71
     3
 72
    13
 73
     9
 74
     0
 42
0.00000001
 43
0.00000001
 40
0.0
 40
0.0
 40
0.0
 40
0.0
 40
0.1023446142686334
 40
0.3436968946339743
 40
0.4505680402098819
 40
0.658464147169841
 40
0.8632429129322892
 40
1.0
 40
1.0
 40
1.0
 40
1.0
 10
13.53625191741673
 20
347.1683193509638
 30
0.0
 10
13.19035751445333
 20
346.9035223720646
 30
0.0
 10
12.02876407820513
 20
346.014272849689
 30
0.0
 10
10.17100088734144
 20
345.2917499474993
 30
0.0
 10
7.760819692379961
 20
344.9300180638299
 30
0.0
 10
5.448679741027862
 20
345.0877547253303
 30
0.0
 10
3.164750868478949
 20
345.877425826554
 30
0.0
 10
1.979702944061662
 20
346.7255781281676
 30
0.0
 10
1.5051884799549
 20
347.0651935366154
 30
0.0
  0
LWPOLYLINE
  5
334
330
1F
100
AcDbEntity
  8
0
  6
SLD-Solid
 62
     7
370
    15
100
AcDbPolyline
 90
        9
 70
   128
 43
0.0
 10
1.50518848
 20
347.0651935366
 10
1.6706286221
 20
347.2191609488
 10
1.8318144827
 20
347.3546625626
 10
1.9845737367
 20
347.468206617
 10
2.1249799281
 20
347.5568664306
 10
2.2494120746
 20
347.6183572364
 10
2.3546664267
 20
347.6510939234
 10
2.4380235224
 20
347.654233179
 10
2.4973450451
 20
347.6276937452
  0
LWPOLYLINE
  5
335
330
1F
100
AcDbEntity
  8
0
  6
SLD-Solid
 62
     7
370
    15
100
AcDbPolyline
 90
        9
 70
   128
 43
0.0
 10
13.5362519174
 20
347.168319351
 10
13.3665425926
 20
347.3212127154
 10
13.2012700885
 20
347.4556358577
 10
13.0447631925
 20
347.568071871
 10
12.9011159986
 20
347.6555791729
 10
12.7740798741
 20
347.7158683398
 10
12.6669889539
 20
347.7473624096
 10
12.5826372057
 20
347.7492373948
 10
12.5232300013
 20
347.7214441681
  0
SPLINE
  5
336
330
1F
100
AcDbEntity
  8
0
  6
SLD-Solid
 62
     7
370
    15
100
AcDbSpline
210
0.0
220
0.0
230
1.0
 70
     8
 71
     3
 72
    13
 73
     9
 74
     0
 42
0.00000001
 43
0.00000001
 40
0.0
 40
0.0
 40
0.0
 40
0.0
 40
0.0336943892375071
 40
0.2724393064269505
 40
0.506336845358455
 40
0.5750213329282823
 40
0.7957554143171282
 40
1.0
 40
1.0
 40
1.0
 40
1.0
 10
1.5051884799549
 20
359.4401937023908
 30
0.0
 10
1.617921591649696
 20
359.5284496891069
 30
0.0
 10
2.529436281676845
 20
360.2420521716883
 30
0.0
 10
4.51198605150921
 20
361.2210795063729
 30
0.0
 10
6.908286494082816
 20
361.5626251915928
 30
0.0
 10
9.195662853186876
 20
361.4132994076319
 30
0.0
 10
11.33510276160896
 20
360.8859531555261
 30
0.0
 10
12.82176338669883
 20
359.8398332042298
 30
0.0
 10
13.53625191741673
 20
359.3370683537036
 30
0.0
  0
LWPOLYLINE
  5
337
330
1F
100
AcDbEntity
  8
0
  6
SLD-Solid
 62
     7
370
    15
100
AcDbPolyline
 90
        9
 70
   128
 43
0.0
 10
13.5362519174
 20
359.3370683537
 10
13.3665425926
 20
359.184174058
 10
13.2012700885
 20
359.0497516141
 10
13.0447631925
 20
358.9373158337
 10
12.9011159986
 20
358.8498078332
 10
12.7740798741
 20
358.7895186664
 10
12.6669889539
 20
358.7580250622
 10
12.5826372057
 20
358.7561493785
 10
12.5232300013
 20
358.7839428381
  0
LWPOLYLINE
  5
338
330
1F
100
AcDbEntity
  8
0
  6
SLD-Solid
 62
     7
370
    15
100
AcDbPolyline
 90
        9
 70
   128
 43
0.0
 10
1.50518848
 20
359.4401937024
 10
1.6706286221
 20
359.286226523
 10
1.8318144827
 20
359.1507246764
 10
1.9845737367
 20
359.037180622
 10
2.1249799281
 20
358.9485205756
 10
2.2494120746
 20
358.8870300026
 10
2.3546664267
 20
358.8542930828
 10
2.4380235224
 20
358.8511545257
 10
2.4973450451
 20
358.8776934938
  0
SPLINE
  5
339
330
1F
100
AcDbEntity
  8
0
  6
SLD-Solid
 62
     7
370
    15
100
AcDbSpline
210
0.0
220
0.0
230
1.0
 70
     8
 71
     3
 72
    11
 73
     7
 74
     0
 42
0.00000001
 43
0.00000001
 40
0.0
 40
0.0
 40
0.0
 40
0.0
 40
0.0172378085026638
 40
0.4322988760570424
 40
0.560395515673122
 40
1.0
 40
1.0
 40
1.0
 40
1.0
 10
-32.54187123483926
 20
361.5026932255536
 30
0.0
 10
-32.50454347750642
 20
361.5025566146257
 30
0.0
 10
-31.56841824220039
 20
361.4991306135434
 30
0.0
 10
-30.34968313644559
 20
361.3087018023812
 30
0.0
 10
-28.35750103943585
 20
360.637639115297
 30
0.0
 10
-27.36076408895577
 20
359.9627782774478
 30
0.0
 10
-26.58893184370309
 20
359.4401937023908
 30
0.0
  0
LWPOLYLINE
  5
33A
330
1F
100
AcDbEntity
  8
0
  6
SLD-Solid
 62
     7
370
    15
100
AcDbPolyline
 90
        9
 70
   128
 43
0.0
 10
-26.5889318437
 20
359.4401937024
 10
-26.7543794364
 20
359.286226523
 10
-26.9155578465
 20
359.1507246764
 10
-27.0683171005
 20
359.037180622
 10
-27.2087307424
 20
358.9485205756
 10
-27.3331628889
 20
358.8870300026
 10
-27.4384097905
 20
358.8542930828
 10
-27.5217743368
 20
358.8511545257
 10
-27.5810884089
 20
358.8776934938
  0
LINE
  5
33B
330
1F
100
AcDbEntity
  8
0
  6
SLD-Solid
 62
     7
370
    15
100
AcDbLine
 10
-32.5418712348
 20
361.5026932256
 30
0.0
 11
-32.5418712348
 21
360.7526935683
 31
0.0
  0
SPLINE
  5
33C
330
1F
100
AcDbEntity
  8
0
  6
SLD-Solid
 62
     7
370
    15
100
AcDbSpline
210
0.0
220
0.0
230
1.0
 70
     8
 71
     3
 72
    11
 73
     7
 74
     0
 42
0.00000001
 43
0.00000001
 40
0.0
 40
0.0
 40
0.0
 40
0.0
 40
0.115366023031665
 40
0.4279506280157698
 40
0.8435907162170939
 40
1.0
 40
1.0
 40
1.0
 40
1.0
 10
-26.58893184370309
 20
347.0651935366154
 30
0.0
 10
-26.78139824665885
 20
346.917499424516
 30
0.0
 10
-27.49535297832395
 20
346.3696276476601
 30
0.0
 10
-29.08760089827381
 20
345.5385591821254
 30
0.0
 10
-30.96213404695905
 20
345.0525454679121
 30
0.0
 10
-32.20268168692819
 20
345.0133975681913
 30
0.0
 10
-32.54187123483926
 20
345.0026937806219
 30
0.0
  0
LINE
  5
33D
330
1F
100
AcDbEntity
  8
0
  6
SLD-Solid
 62
     7
370
    15
100
AcDbLine
 10
-32.5418712348
 20
345.0026937806
 30
0.0
 11
-32.5418712348
 21
345.7526934379
 31
0.0
  0
LWPOLYLINE
  5
33E
330
1F
100
AcDbEntity
  8
0
  6
SLD-Solid
 62
     7
370
    15
100
AcDbPolyline
 90
        9
 70
   128
 43
0.0
 10
-26.5889318437
 20
347.0651935366
 10
-26.7543794364
 20
347.2191609488
 10
-26.9155578465
 20
347.3546625626
 10
-27.0683171005
 20
347.468206617
 10
-27.2087307424
 20
347.5568664306
 10
-27.3331628889
 20
347.6183572364
 10
-27.4384097905
 20
347.6510939234
 10
-27.5217743368
 20
347.654233179
 10
-27.5810884089
 20
347.6276937452
  0
LINE
  5
33F
330
1F
100
AcDbEntity
  8
0
  6
SLD-Solid
 62
     7
370
    15
100
AcDbLine
 10
1.50518848
 20
347.0651935366
 30
0.0
 11
-26.5889318437
 21
347.0651935366
 31
0.0
  0
LINE
  5
340
330
1F
100
AcDbEntity
  8
0
  6
SLD-Solid
 62
     7
370
    15
100
AcDbLine
 10
-26.5889318437
 20
347.0651935366
 30
0.0
 11
-26.5889318437
 21
348.0026935739
 31
0.0
  0
LINE
  5
341
330
1F
100
AcDbEntity
  8
0
  6
SLD-Solid
 62
     7
370
    15
100
AcDbLine
 10
1.50518848
 20
347.0651935366
 30
0.0
 11
1.50518848
 21
348.0026935739
 31
0.0
  0
LINE
  5
342
330
1F
100
AcDbEntity
  8
0
  6
SLD-Solid
 62
     7
370
    15
100
AcDbLine
 10
1.50518848
 20
359.4401937024
 30
0.0
 11
1.50518848
 21
358.5026936651
 31
0.0
  0
LINE
  5
343
330
1F
100
AcDbEntity
  8
0
  6
SLD-Solid
 62
     7
370
    15
100
AcDbLine
 10
-26.5889318437
 20
359.4401937024
 30
0.0
 11
1.50518848
 21
359.4401937024
 31
0.0
  0
LINE
  5
344
330
1F
100
AcDbEntity
  8
0
  6
SLD-Solid
 62
     7
370
    15
100
AcDbLine
 10
-26.5889318437
 20
359.4401937024
 30
0.0
 11
-26.5889318437
 21
358.5026936651
 31
0.0
  0
LINE
  5
345
330
1F
100
AcDbEntity
  8
0
  6
SLD-Solid
 62
     7
370
    15
100
AcDbLine
 10
156.4581243544
 20
369.2526940302
 30
0.0
 11
156.4581243544
 21
361.9610268668
 31
0.0
  0
LINE
  5
346
330
1F
100
AcDbEntity
  8
0
  6
SLD-Solid
 62
     7
370
    15
100
AcDbLine
 10
-32.5418712348
 20
345.0026937806
 30
0.0
 11
-32.5418712348
 21
337.2526934416
 31
0.0
  0
LINE
  5
347
330
1F
100
AcDbEntity
  8
0
  6
SLD-Solid
 62
     7
370
    15
100
AcDbLine
 10
-32.5418712348
 20
369.2526940302
 30
0.0
 11
-32.5418712348
 21
361.5026932256
 31
0.0
  0
LINE
  5
348
330
1F
100
AcDbEntity
  8
0
  6
SLD-Solid
 62
     7
370
    15
100
AcDbLine
 10
-20.5418692679
 20
361.9610268668
 30
0.0
 11
-20.5418692679
 21
369.2526940302
 31
0.0
  0
LINE
  5
349
330
1F
100
AcDbEntity
  8
0
  6
SLD-Solid
 62
     7
370
    15
100
AcDbLine
 10
-4.5418740959
 20
361.9610268668
 30
0.0
 11
-20.5418692679
 21
361.9610268668
 31
0.0
  0
LINE
  5
34A
330
1F
100
AcDbEntity
  8
0
  6
SLD-Solid
 62
     7
370
    15
100
AcDbLine
 10
-4.5418740959
 20
369.2526940302
 30
0.0
 11
-4.5418740959
 21
361.9610268668
 31
0.0
  0
LINE
  5
34B
330
1F
100
AcDbEntity
  8
0
  6
SLD-Solid
 62
     7
370
    15
100
AcDbLine
 10
140.4581291824
 20
361.9610268668
 30
0.0
 11
140.4581291824
 21
369.2526940302
 31
0.0
  0
LINE
  5
34C
330
1F
100
AcDbEntity
  8
0
  6
SLD-Solid
 62
     7
370
    15
100
AcDbLine
 10
156.4581243544
 20
361.9610268668
 30
0.0
 11
140.4581291824
 21
361.9610268668
 31
0.0
  0
LINE
  5
34D
330
1F
100
AcDbEntity
  8
0
  6
SLD-Solid
 62
     7
370
    15
100
AcDbLine
 10
140.4581291824
 20
369.2526940302
 30
0.0
 11
-4.5418740959
 21
369.2526940302
 31
0.0
  0
LINE
  5
34E
330
1F
100
AcDbEntity
  8
0
  6
SLD-Solid
 62
     7
370
    15
100
AcDbLine
 10
-20.5418692679
 20
369.2526940302
 30
0.0
 11
-32.5418712348
 21
369.2526940302
 31
0.0
  0
LINE
  5
34F
330
1F
100
AcDbEntity
  8
0
  6
SLD-Solid
 62
     7
370
    15
100
AcDbLine
 10
169.9581293612
 20
369.2526940302
 30
0.0
 11
156.4581243544
 21
369.2526940302
 31
0.0
  0
LINE
  5
350
330
1F
100
AcDbEntity
  8
0
  6
SLD-Solid
 62
     7
370
    15
100
AcDbLine
 10
169.9581293612
 20
337.2526934416
 30
0.0
 11
-32.5418712348
 21
337.2526934416
 31
0.0
  0
LWPOLYLINE
  5
351
330
1F
100
AcDbEntity
  8
0
  6
SLD-Solid
 62
     7
370
    15
100
AcDbPolyline
 90
        9
 70
   128
 43
0.0
 10
-32.5418712348
 20
345.0026937806
 10
-32.8345076889
 20
344.9882824951
 10
-33.1159012169
 20
344.9456032411
 10
-33.3752261252
 20
344.8762956121
 10
-33.6025358886
 20
344.7830236563
 10
-33.789076075
 20
344.6693711029
 10
-33.927694127
 20
344.5397063204
 10
-34.0130479783
 20
344.3990114191
 10
-34.0418742747
 20
344.2526936577
  0
SPLINE
  5
352
330
1F
100
AcDbEntity
  8
0
  6
SLD-Solid
 62
     7
370
    15
100
AcDbSpline
210
0.0
220
0.0
230
1.0
 70
    24
 71
     3
 72
    12
 73
     8
 74
     0
 42
0.00000001
 43
0.00000001
 40
0.0
 40
0.0
 40
0.0
 40
0.0
 40
0.0334570272565956
 40
0.0756384686001249
 40
0.1579719961231893
 40
0.4520864018562789
 40
1.0
 40
1.0
 40
1.0
 40
1.0
 10
-32.54187123483926
 20
337.2526934416205
 30
0.0
 10
-32.59406166133216
 20
337.2526934416205
 30
0.0
 10
-32.71205193898702
 20
337.2526934416205
 30
0.0
 10
-32.91754616312681
 20
337.2526934416205
 30
0.0
 10
-33.31588541651181
 20
337.2526934416205
 30
0.0
 10
-33.84000148501909
 20
337.2526934416205
 30
0.0
 10
-33.96229622162164
 20
337.2526934416205
 30
0.0
 10
-34.04187427467614
 20
337.2526934416205
 30
0.0
  0
LWPOLYLINE
  5
353
330
1F
100
AcDbEntity
  8
0
  6
SLD-Solid
 62
     7
370
    15
100
AcDbPolyline
 90
        9
 70
   128
 43
0.0
 10
-32.5418712348
 20
361.5026932256
 10
-32.8345076889
 20
361.5171045111
 10
-33.1159012169
 20
361.5597842307
 10
-33.3752261252
 20
361.6290913941
 10
-33.6025358886
 20
361.7223633499
 10
-33.789076075
 20
361.836016369
 10
-33.927694127
 20
361.9656806857
 10
-34.0130479783
 20
362.1063755871
 10
-34.0418742747
 20
362.2526938141
  0
SPLINE
  5
354
330
1F
100
AcDbEntity
  8
0
  6
SLD-Solid
 62
     7
370
    15
100
AcDbSpline
210
0.0
220
0.0
230
1.0
 70
    24
 71
     3
 72
    14
 73
    10
 74
     0
 42
0.00000001
 43
0.00000001
 40
0.0
 40
0.0
 40
0.0
 40
0.0
 40
0.6033718955881203
 40
0.7307354902457487
 40
0.8467980195635733
 40
0.9165323791724835
 40
0.9566610004266414
 40
0.9867390401430719
 40
1.0
 40
1.0
 40
1.0
 40
1.0
 10
-34.04187427467614
 20
369.2526940302163
 30
0.0
 10
-33.95610283124783
 20
369.2526940302163
 30
0.0
 10
-33.85222620354786
 20
369.2526940302163
 30
0.0
 10
-33.37046921800763
 20
369.2526940302163
 30
0.0
 10
-33.14564823055666
 20
369.2526940302163
 30
0.0
 10
-32.92799821269723
 20
369.2526940302163
 30
0.0
 10
-32.75410400160164
 20
369.2526940302163
 30
0.0
 10
-32.62996512796335
 20
369.2526940302163
 30
0.0
 10
-32.56251099486946
 20
369.2526940302163
 30
0.0
 10
-32.54187123483926
 20
369.2526940302163
 30
0.0
  0
SPLINE
  5
355
330
1F
100
AcDbEntity
  8
0
  6
SLD-Solid
 62
     7
370
    15
100
AcDbSpline
210
0.0
220
0.0
230
1.0
 70
     8
 71
     3
 72
    13
 73
     9
 74
     0
 42
0.00000001
 43
0.00000001
 40
0.0
 40
0.0
 40
0.0
 40
0.0
 40
0.0027610268874565
 40
0.2383616609238954
 40
0.5206077511288041
 40
0.7184957272596695
 40
0.8589415151514932
 40
1.0
 40
1.0
 40
1.0
 40
1.0
 10
-4.541874095862209
 20
361.9610268668443
 30
0.0
 10
-4.543739216668785
 20
361.9625446653466
 30
0.0
 10
-4.7047565886075
 20
362.0935774247885
 30
0.0
 10
-5.056820319843225
 20
362.4074922810631
 30
0.0
 10
-5.515760022634292
 20
362.9112303603055
 30
0.0
 10
-5.836999370188501
 20
363.3825459505027
 30
0.0
 10
-6.010453007587236
 20
363.7431746495664
 30
0.0
 10
-6.031382275019204
 20
363.9093872734099
 30
0.0
 10
-6.041869685118495
 20
363.9926744670778
 30
0.0
  0
SPLINE
  5
356
330
1F
100
AcDbEntity
  8
0
  6
SLD-Solid
 62
     7
370
    15
100
AcDbSpline
210
0.0
220
0.0
230
1.0
 70
     8
 71
     3
 72
    13
 73
     9
 74
     0
 42
0.00000001
 43
0.00000001
 40
0.0
 40
0.0
 40
0.0
 40
0.0
 40
0.1410589673025161
 40
0.2815039366669507
 40
0.4793935340136505
 40
0.7616381241017571
 40
0.9972408881140533
 40
1.0
 40
1.0
 40
1.0
 40
1.0
 10
-19.0418736786297
 20
363.9926744670778
 30
0.0
 10
-19.05236510120728
 20
363.9093877608026
 30
0.0
 10
-19.07330227956117
 20
363.7431768765403
 30
0.0
 10
-19.24673768006751
 20
363.3825405416104
 30
0.0
 10
-19.56800656017404
 20
362.9112463178192
 30
0.0
 10
-20.02686386067754
 20
362.4074356664952
 30
0.0
 10
-20.37909261020154
 20
362.0936691784617
 30
0.0
 10
-20.54000663860966
 20
361.9625446732448
 30
0.0
 10
-20.54186926788598
 20
361.9610268668443
 30
0.0
  0
LINE
  5
357
330
1F
100
AcDbEntity
  8
0
  6
SLD-Solid
 62
     7
370
    15
100
AcDbLine
 10
-6.0418696851
 20
364.2526932107
 30
0.0
 11
-6.0418696851
 21
363.9926744671
 31
0.0
  0
LINE
  5
358
330
1F
100
AcDbEntity
  8
0
  6
SLD-Solid
 62
     7
370
    15
100
AcDbLine
 10
-19.0418736786
 20
363.9926744671
 30
0.0
 11
-19.0418736786
 21
364.2526932107
 31
0.0
  0
SPLINE
  5
359
330
1F
100
AcDbEntity
  8
0
  6
SLD-Solid
 62
     7
370
    15
100
AcDbSpline
210
0.0
220
0.0
230
1.0
 70
     8
 71
     3
 72
    13
 73
     9
 74
     0
 42
0.00000001
 43
0.00000001
 40
0.0
 40
0.0
 40
0.0
 40
0.0
 40
0.0027610294929242
 40
0.2383618858560071
 40
0.5206064722540082
 40
0.7184960670134716
 40
0.8589410345417089
 40
1.0
 40
1.0
 40
1.0
 40
1.0
 10
156.458124354417
 20
361.9610268668443
 30
0.0
 10
156.4562592336677
 20
361.9625446653866
 30
0.0
 10
156.295241866671
 20
362.093577428288
 30
0.0
 10
155.9431765474549
 20
362.407489267849
 30
0.0
 10
155.4842500439163
 20
362.9112360091302
 30
0.0
 10
155.1629945453969
 20
363.3825421220131
 30
0.0
 10
154.9895569841821
 20
363.743176537226
 30
0.0
 10
154.9686200602499
 20
363.9093876475335
 30
0.0
 10
154.9581287651607
 20
363.9926744670778
 30
0.0
  0
SPLINE
  5
35A
330
1F
100
AcDbEntity
  8
0
  6
SLD-Solid
 62
     7
370
    15
100
AcDbSpline
210
0.0
220
0.0
230
1.0
 70
     8
 71
     3
 72
    13
 73
     9
 74
     0
 42
0.00000001
 43
0.00000001
 40
0.0
 40
0.0
 40
0.0
 40
0.0
 40
0.0027610278214039
 40
0.2383617415523273
 40
0.5206061570801731
 40
0.7184956320377787
 40
0.8589414674369221
 40
1.0
 40
1.0
 40
1.0
 40
1.0
 10
140.4581291823932
 20
361.9610268668443
 30
0.0
 10
140.4599943031531
 20
361.9625446653839
 30
0.0
 10
140.6210116710609
 20
362.0935774280426
 30
0.0
 10
140.973076476746
 20
362.407489404303
 30
0.0
 10
141.4320053898863
 20
362.9112355041606
 30
0.0
 10
141.7532553133616
 20
363.3825439560903
 30
0.0
 10
141.9267077989648
 20
363.7431748465009
 30
0.0
 10
141.947637263023
 20
363.90938733915
 30
0.0
 10
141.9581247716495
 20
363.9926744670778
 30
0.0
  0
LINE
  5
35B
330
1F
100
AcDbEntity
  8
0
  6
SLD-Solid
 62
     7
370
    15
100
AcDbLine
 10
141.9581247716
 20
363.9926744671
 30
0.0
 11
141.9581247716
 21
364.2526932107
 31
0.0
  0
LINE
  5
35C
330
1F
100
AcDbEntity
  8
0
  6
SLD-Solid
 62
     7
370
    15
100
AcDbLine
 10
154.9581287652
 20
364.2526932107
 30
0.0
 11
154.9581287652
 21
363.9926744671
 31
0.0
  0
SPLINE
  5
35D
330
1F
100
AcDbEntity
  8
0
  6
SLD-Solid
 62
     7
370
    15
100
AcDbSpline
210
0.0
220
0.0
230
1.0
 70
    24
 71
     3
 72
    12
 73
     8
 74
     0
 42
0.00000001
 43
0.00000001
 40
0.0
 40
0.0
 40
0.0
 40
0.0
 40
0.0334570591801897
 40
0.0756371946177982
 40
0.1579708007008044
 40
0.4520861223917876
 40
1.0
 40
1.0
 40
1.0
 40
1.0
 10
-20.54186926788598
 20
369.2526940302163
 30
0.0
 10
-20.48967865838938
 20
369.2526940302163
 30
0.0
 10
-20.37169006690992
 20
369.2526940302163
 30
0.0
 10
-20.16620186164947
 20
369.2526940302163
 30
0.0
 10
-19.76786073156972
 20
369.2526940302163
 30
0.0
 10
-19.2437347377663
 20
369.2526940302163
 30
0.0
 10
-19.12144706367486
 20
369.2526940302163
 30
0.0
 10
-19.0418736786297
 20
369.2526940302163
 30
0.0
  0
SPLINE
  5
35E
330
1F
100
AcDbEntity
  8
0
  6
SLD-Solid
 62
     7
370
    15
100
AcDbSpline
210
0.0
220
0.0
230
1.0
 70
    24
 71
     3
 72
    14
 73
    10
 74
     0
 42
0.00000001
 43
0.00000001
 40
0.0
 40
0.0
 40
0.0
 40
0.0
 40
0.6033725650012826
 40
0.7307357153026905
 40
0.8467991390815701
 40
0.9165335760575215
 40
0.9566609523440294
 40
0.9867390254306514
 40
1.0
 40
1.0
 40
1.0
 40
1.0
 10
-6.041869685118495
 20
369.2526940302163
 30
0.0
 10
-5.956091410235842
 20
369.2526940302163
 30
0.0
 10
-5.852206592314612
 20
369.2526940302163
 30
0.0
 10
-5.370475040482964
 20
369.2526940302163
 30
0.0
 10
-5.14564377229415
 20
369.2526940302163
 30
0.0
 10
-4.927993422194993
 20
369.2526940302163
 30
0.0
 10
-4.754105663166031
 20
369.2526940302163
 30
0.0
 10
-4.629967929041995
 20
369.2526940302163
 30
0.0
 10
-4.562513841847887
 20
369.2526940302163
 30
0.0
 10
-4.541874095862209
 20
369.2526940302163
 30
0.0
  0
SPLINE
  5
35F
330
1F
100
AcDbEntity
  8
0
  6
SLD-Solid
 62
     7
370
    15
100
AcDbSpline
210
0.0
220
0.0
230
1.0
 70
    24
 71
     3
 72
    12
 73
     8
 74
     0
 42
0.00000001
 43
0.00000001
 40
0.0
 40
0.0
 40
0.0
 40
0.0
 40
0.0334570591801897
 40
0.0756371946177982
 40
0.1579708007008044
 40
0.4520861223917876
 40
1.0
 40
1.0
 40
1.0
 40
1.0
 10
140.4581291823932
 20
369.2526940302163
 30
0.0
 10
140.5103197918898
 20
369.2526940302163
 30
0.0
 10
140.6283083833693
 20
369.2526940302163
 30
0.0
 10
140.8337965886297
 20
369.2526940302163
 30
0.0
 10
141.2321377187094
 20
369.2526940302163
 30
0.0
 10
141.7562637125129
 20
369.2526940302163
 30
0.0
 10
141.8785513866043
 20
369.2526940302163
 30
0.0
 10
141.9581247716495
 20
369.2526940302163
 30
0.0
  0
SPLINE
  5
360
330
1F
100
AcDbEntity
  8
0
  6
SLD-Solid
 62
     7
370
    15
100
AcDbSpline
210
0.0
220
0.0
230
1.0
 70
    24
 71
     3
 72
    14
 73
    10
 74
     0
 42
0.00000001
 43
0.00000001
 40
0.0
 40
0.0
 40
0.0
 40
0.0
 40
0.6033726970913607
 40
0.730735875275058
 40
0.8467993244624954
 40
0.9165337767046815
 40
0.9566624512646367
 40
0.9867390225275642
 40
1.0
 40
1.0
 40
1.0
 40
1.0
 10
154.9581287651607
 20
369.2526940302163
 30
0.0
 10
155.0439072722894
 20
369.2526940302163
 30
0.0
 10
155.1477923714804
 20
369.2526940302163
 30
0.0
 10
155.6295230650177
 20
369.2526940302163
 30
0.0
 10
155.8543556898914
 20
369.2526940302163
 30
0.0
 10
156.0720044823376
 20
369.2526940302163
 30
0.0
 10
156.2458975065089
 20
369.2526940302163
 30
0.0
 10
156.3700326814615
 20
369.2526940302163
 30
0.0
 10
156.4374845644995
 20
369.2526940302163
 30
0.0
 10
156.458124354417
 20
369.2526940302163
 30
0.0
  0
LINE
  5
361
330
1F
100
AcDbEntity
  8
0
  6
SLD-Solid
 62
     7
370
    15
100
AcDbLine
 10
-47.5418718309
 20
339.0026932628
 30
0.0
 11
-47.5418718309
 21
367.502694209
 31
0.0
  0
LINE
  5
362
330
1F
100
AcDbEntity
  8
0
  6
SLD-Solid
 62
     7
370
    15
100
AcDbLine
 10
183.4581269174
 20
339.0026932628
 30
0.0
 11
183.4581269174
 21
367.502694209
 31
0.0
  0
LINE
  5
363
330
1F
100
AcDbEntity
  8
0
  6
SLD-Solid
 62
     7
370
    15
100
AcDbLine
 10
10.8383892327
 20
359.8467402206
 30
0.0
 11
12.5232300013
 21
358.7839428381
 31
0.0
  0
SPLINE
  5
364
330
1F
100
AcDbEntity
  8
0
  6
SLD-Solid
 62
     7
370
    15
100
AcDbSpline
210
0.0
220
0.0
230
1.0
 70
     8
 71
     3
 72
     9
 73
     5
 74
     0
 42
0.00000001
 43
0.00000001
 40
0.0
 40
0.0
 40
0.0
 40
0.0
 40
0.9894843905764767
 40
1.0
 40
1.0
 40
1.0
 40
1.0
 10
1.877248123223485
 20
358.2630587787539
 30
0.0
 10
1.970564462251634
 20
358.3639822082912
 30
0.0
 10
2.064872507852811
 20
358.4659781877109
 30
0.0
 10
2.151995998133649
 20
358.5531635126899
 30
0.0
 10
2.15291215472907
 20
358.5540803195149
 30
0.0
  0
SPLINE
  5
365
330
1F
100
AcDbEntity
  8
0
  6
SLD-Solid
 62
     7
370
    15
100
AcDbSpline
210
0.0
220
0.0
230
1.0
 70
     8
 71
     3
 72
     9
 73
     5
 74
     0
 42
0.00000001
 43
0.00000001
 40
0.0
 40
0.0
 40
0.0
 40
0.0
 40
0.3665165524430226
 40
1.0
 40
1.0
 40
1.0
 40
1.0
 10
-26.96099148697168
 20
358.2630587787539
 30
0.0
 10
-26.90660937964079
 20
358.2016284787179
 30
0.0
 10
-26.7582337961414
 20
358.03402267858
 30
0.0
 10
-26.60442998035223
 20
357.8330999211245
 30
0.0
 10
-26.50699780887872
 20
357.705818680039
 30
0.0
  0
ARC
  5
366
330
1F
100
AcDbEntity
  8
0
  6
SLD-Solid
 62
     7
370
    15
100
AcDbCircle
 10
7.4581272984
 20
353.2526936351
 30
0.0
 40
3.125000000000004
100
AcDbArc
 50
204.5885657358
 51
15.4114342642
  0
LINE
  5
367
330
1F
100
AcDbEntity
  8
0
  6
SLD-Solid
 62
     7
370
    15
100
AcDbLine
 10
4.6165062337
 20
351.9523832527
 30
0.0
 11
10.4707589596
 21
354.083157801
 31
0.0
  0
LINE
  5
368
330
1F
100
AcDbEntity
  8
0
  6
SLD-Solid
 62
     7
370
    15
100
AcDbLine
 10
10.2997495084
 20
354.5530039863
 30
0.0
 11
4.4454930573
 21
352.4222295544
 31
0.0
  0
ARC
  5
369
330
1F
100
AcDbEntity
  8
0
  6
SLD-Solid
 62
     7
370
    15
100
AcDbCircle
 10
7.4581272984
 20
353.2526936351
 30
0.0
 40
3.125000000000013
100
AcDbArc
 50
24.5885657358
 51
195.4114342642
  0
ARC
  5
36A
330
1F
100
AcDbEntity
  8
0
  6
SLD-Solid
 62
     7
370
    15
100
AcDbCircle
 10
7.4581272984
 20
353.2526936351
 30
0.0
 40
3.124999999999983
100
AcDbArc
 50
15.4114342642
 51
24.5885657358
  0
ARC
  5
36B
330
1F
100
AcDbEntity
  8
0
  6
SLD-Solid
 62
     7
370
    15
100
AcDbCircle
 10
7.4581272984
 20
353.2526936351
 30
0.0
 40
3.125000000000004
100
AcDbArc
 50
195.4114342642
 51
204.5885657358
  0
LINE
  5
36C
330
1F
100
AcDbEntity
  8
0
  6
SLD-Solid
 62
     7
370
    15
100
AcDbLine
 10
-34.567721352
 20
350.8732906647
 30
0.0
 11
-30.1624687166
 21
355.2785433875
 31
0.0
  0
ARC
  5
36D
330
1F
100
AcDbEntity
  8
0
  6
SLD-Solid
 62
     7
370
    15
100
AcDbCircle
 10
-32.5418727016
 20
353.2526936351
 30
0.0
 40
3.125000000000043
100
AcDbArc
 50
229.5885657358
 51
40.4114342642
  0
LINE
  5
36E
330
1F
100
AcDbEntity
  8
0
  6
SLD-Solid
 62
     7
370
    15
100
AcDbLine
 10
-30.5160211176
 20
355.6320967199
 30
0.0
 11
-34.9212737531
 21
351.2268440553
 31
0.0
  0
ARC
  5
36F
330
1F
100
AcDbEntity
  8
0
  6
SLD-Solid
 62
     7
370
    15
100
AcDbCircle
 10
-32.5418727016
 20
353.2526936351
 30
0.0
 40
3.125000000000003
100
AcDbArc
 50
49.5885657358
 51
220.4114342642
  0
ARC
  5
370
330
1F
100
AcDbEntity
  8
0
  6
SLD-Solid
 62
     7
370
    15
100
AcDbCircle
 10
-32.5418727016
 20
353.2526936351
 30
0.0
 40
3.125
100
AcDbArc
 50
40.4114342642
 51
49.5885657358
  0
ARC
  5
371
330
1F
100
AcDbEntity
  8
0
  6
SLD-Solid
 62
     7
370
    15
100
AcDbCircle
 10
-32.5418727016
 20
353.2526936351
 30
0.0
 40
3.125000000000043
100
AcDbArc
 50
220.4114342642
 51
229.5885657358
  0
CIRCLE
  5
372
330
1F
100
AcDbEntity
  8
0
  6
SLD-Solid
 62
     7
370
    15
100
AcDbCircle
 10
196.9581272984
 20
343.2526936351
 30
0.0
 40
2.750000000000057
  0
CIRCLE
  5
373
330
1F
100
AcDbEntity
  8
0
  6
SLD-Solid
 62
     7
370
    15
100
AcDbCircle
 10
-63.0418727016
 20
343.2526936351
 30
0.0
 40
2.750000000000057
  0
ARC
  5
374
330
1F
100
AcDbEntity
  8
0
  6
SLD-Solid
 62
     7
370
    15
100
AcDbCircle
 10
203.4581272984
 20
368.0026936351
 30
0.0
 40
1.0
100
AcDbArc
 50
0.0
 51
90.0
  0
LINE
  5
375
330
1F
100
AcDbEntity
  8
0
  6
SLD-Solid
 62
     7
370
    15
100
AcDbLine
 10
204.4581322222
 20
368.0026933597
 30
0.0
 11
204.4581322222
 21
338.5026931809
 31
0.0
  0
ARC
  5
376
330
1F
100
AcDbEntity
  8
0
  6
SLD-Solid
 62
     7
370
    15
100
AcDbCircle
 10
203.4581272984
 20
338.5026936351
 30
0.0
 40
1.0
100
AcDbArc
 50
270.0
 51
0.0
  0
LINE
  5
377
330
1F
100
AcDbEntity
  8
0
  6
SLD-Solid
 62
     7
370
    15
100
AcDbLine
 10
-70.5418737382
 20
338.5026931809
 30
0.0
 11
-70.5418737382
 21
368.0026933597
 31
0.0
  0
ARC
  5
378
330
1F
100
AcDbEntity
  8
0
  6
SLD-Solid
 62
     7
370
    15
100
AcDbCircle
 10
-69.5418727016
 20
368.0026936351
 30
0.0
 40
1.0
100
AcDbArc
 50
90.0
 51
180.0
  0
LINE
  5
379
330
1F
100
AcDbEntity
  8
0
  6
SLD-Solid
 62
     7
370
    15
100
AcDbLine
 10
-69.5418717117
 20
369.0026935236
 30
0.0
 11
-47.0418708176
 21
369.0026935236
 31
0.0
  0
LINE
  5
37A
330
1F
100
AcDbEntity
  8
0
  6
SLD-Solid
 62
     7
370
    15
100
AcDbLine
 10
182.891137734
 20
369.0026935236
 30
0.0
 11
203.4581301957
 21
369.0026935236
 31
0.0
  0
CIRCLE
  5
37B
330
1F
100
AcDbEntity
  8
0
  6
SLD-Solid
 62
     7
370
    15
100
AcDbCircle
 10
-63.0418727016
 20
363.2526936351
 30
0.0
 40
2.749999999999943
  0
CIRCLE
  5
37C
330
1F
100
AcDbEntity
  8
0
  6
SLD-Solid
 62
     7
370
    15
100
AcDbCircle
 10
196.9581272984
 20
363.2526936351
 30
0.0
 40
2.75
  0
ARC
  5
37D
330
1F
100
AcDbEntity
  8
0
  6
SLD-Solid
 62
     7
370
    15
100
AcDbCircle
 10
7.4581272984
 20
353.2526936351
 30
0.0
 40
8.000000000000018
100
AcDbArc
 50
221.0144996657
 51
320.0359733885
  0
LINE
  5
37E
330
1F
100
AcDbEntity
  8
0
  6
SLD-Solid
 62
     7
370
    15
100
AcDbLine
 10
203.4581301957
 20
337.5026939483
 30
0.0
 11
182.891137734
 21
337.5026939483
 31
0.0
  0
LINE
  5
37F
330
1F
100
AcDbEntity
  8
0
  6
SLD-Solid
 62
     7
370
    15
100
AcDbLine
 10
-47.0418708176
 20
337.5026939483
 30
0.0
 11
-69.5418717117
 21
337.5026939483
 31
0.0
  0
ARC
  5
380
330
1F
100
AcDbEntity
  8
0
  6
SLD-Solid
 62
     7
370
    15
100
AcDbCircle
 10
-69.5418727016
 20
338.5026936351
 30
0.0
 40
1.0
100
AcDbArc
 50
180.0
 51
270.0
  0
LINE
  5
381
330
1F
100
AcDbEntity
  8
0
  6
SLD-Solid
 62
     8
370
    15
100
AcDbLine
 10
194.2539660483
 20
342.7526934118
 30
0.0
 11
199.6622978001
 21
342.7526934118
 31
0.0
  0
LINE
  5
382
330
1F
100
AcDbEntity
  8
0
  6
SLD-Solid
 62
     8
370
    15
100
AcDbLine
 10
204.4581322222
 20
342.7526934118
 30
0.0
 11
319.7368530779
 21
342.7526934118
 31
0.0
  0
LINE
  5
383
330
1F
100
AcDbEntity
  8
0
  6
SLD-Solid
 62
     8
370
    15
100
AcDbLine
 10
319.7368530779
 20
363.75269406
 30
0.0
 11
204.4581322222
 21
363.75269406
 31
0.0
  0
LINE
  5
384
330
1F
100
AcDbEntity
  8
0
  6
SLD-Solid
 62
     8
370
    15
100
AcDbLine
 10
199.6622978001
 20
363.75269406
 30
0.0
 11
194.2539660483
 21
363.75269406
 31
0.0
  0
LINE
  5
385
330
1F
100
AcDbEntity
  8
0
  6
SLD-Solid
 62
     8
370
    15
100
AcDbLine
 10
183.2914574295
 20
367.7383951889
 30
0.0
 11
183.2914574295
 21
338.7669913517
 31
0.0
  0
LINE
  5
386
330
1F
100
AcDbEntity
  8
0
  6
SLD-Solid
 62
     8
370
    15
100
AcDbLine
 10
-47.2918750495
 20
367.752692853
 30
0.0
 11
-47.2918750495
 21
338.7526936875
 31
0.0
  0
LINE
  5
387
330
1F
100
AcDbEntity
  8
0
  6
SLD-Solid
 62
     7
370
    15
100
AcDbLine
 10
474.7006906533
 20
239.9549868396
 30
0.0
 11
474.7006906533
 21
238.154986172
 31
0.0
  0
LINE
  5
388
330
1F
100
AcDbEntity
  8
0
  6
SLD-Solid
 62
     7
370
    15
100
AcDbLine
 10
490.7006904819
 20
238.154986172
 30
0.0
 11
490.7006904819
 21
239.9549868396
 31
0.0
  0
LINE
  5
389
330
1F
100
AcDbEntity
  8
0
  6
SLD-Solid
 62
     7
370
    15
100
AcDbLine
 10
477.2006903646
 20
238.154986172
 30
0.0
 11
477.2006903646
 21
237.6549851587
 31
0.0
  0
LINE
  5
38A
330
1F
100
AcDbEntity
  8
0
  6
SLD-Solid
 62
     7
370
    15
100
AcDbLine
 10
488.2006900721
 20
237.6549851587
 30
0.0
 11
488.2006900721
 21
238.154986172
 31
0.0
  0
LINE
  5
38B
330
1F
100
AcDbEntity
  8
0
  6
SLD-Solid
 62
     7
370
    15
100
AcDbLine
 10
475.2006902696
 20
219.1161208293
 30
0.0
 11
474.7556903736
 21
219.4277115604
 31
0.0
  0
LINE
  5
38C
330
1F
100
AcDbEntity
  8
0
  6
SLD-Solid
 62
     7
370
    15
100
AcDbLine
 10
470.645690743
 20
219.4277115604
 30
0.0
 11
470.200690847
 21
219.1161208293
 31
0.0
  0
LINE
  5
38D
330
1F
100
AcDbEntity
  8
0
  6
SLD-Solid
 62
     7
370
    15
100
AcDbLine
 10
470.200690847
 20
219.7393041542
 30
0.0
 11
470.645690743
 21
219.4277115604
 31
0.0
  0
LINE
  5
38E
330
1F
100
AcDbEntity
  8
0
  6
SLD-Solid
 62
     7
370
    15
100
AcDbLine
 10
474.7556903736
 20
219.4277115604
 30
0.0
 11
475.2006902696
 21
219.7393041542
 31
0.0
  0
LINE
  5
38F
330
1F
100
AcDbEntity
  8
0
  6
SLD-Solid
 62
     7
370
    15
100
AcDbLine
 10
475.2006902696
 20
220.6615742734
 30
0.0
 11
474.7556903736
 21
220.9731668672
 31
0.0
  0
LINE
  5
390
330
1F
100
AcDbEntity
  8
0
  6
SLD-Solid
 62
     7
370
    15
100
AcDbLine
 10
470.645690743
 20
220.9731668672
 30
0.0
 11
470.200690847
 21
220.6615742734
 31
0.0
  0
LINE
  5
391
330
1F
100
AcDbEntity
  8
0
  6
SLD-Solid
 62
     7
370
    15
100
AcDbLine
 10
470.200690847
 20
220.5120318076
 30
0.0
 11
470.645690743
 21
220.2004392138
 31
0.0
  0
LINE
  5
392
330
1F
100
AcDbEntity
  8
0
  6
SLD-Solid
 62
     7
370
    15
100
AcDbLine
 10
474.7556903736
 20
220.2004392138
 30
0.0
 11
475.2006902696
 21
220.5120318076
 31
0.0
  0
LINE
  5
393
330
1F
100
AcDbEntity
  8
0
  6
SLD-Solid
 62
     7
370
    15
100
AcDbLine
 10
470.200690847
 20
219.88884662
 30
0.0
 11
470.200690847
 21
219.7393041542
 31
0.0
  0
LINE
  5
394
330
1F
100
AcDbEntity
  8
0
  6
SLD-Solid
 62
     7
370
    15
100
AcDbLine
 10
475.2006902696
 20
219.7393041542
 30
0.0
 11
475.2006902696
 21
219.88884662
 31
0.0
  0
LINE
  5
395
330
1F
100
AcDbEntity
  8
0
  6
SLD-Solid
 62
     7
370
    15
100
AcDbLine
 10
470.200690847
 20
221.284759461
 30
0.0
 11
470.645690743
 21
220.9731668672
 31
0.0
  0
LINE
  5
396
330
1F
100
AcDbEntity
  8
0
  6
SLD-Solid
 62
     7
370
    15
100
AcDbLine
 10
474.7556903736
 20
220.9731668672
 30
0.0
 11
475.2006902696
 21
221.284759461
 31
0.0
  0
LINE
  5
397
330
1F
100
AcDbEntity
  8
0
  6
SLD-Solid
 62
     7
370
    15
100
AcDbLine
 10
475.2006902696
 20
219.88884662
 30
0.0
 11
474.7556903736
 21
220.2004392138
 31
0.0
  0
LINE
  5
398
330
1F
100
AcDbEntity
  8
0
  6
SLD-Solid
 62
     7
370
    15
100
AcDbLine
 10
470.645690743
 20
220.2004392138
 30
0.0
 11
470.200690847
 21
219.88884662
 31
0.0
  0
LINE
  5
399
330
1F
100
AcDbEntity
  8
0
  6
SLD-Solid
 62
     7
370
    15
100
AcDbLine
 10
470.200690847
 20
218.9665783634
 30
0.0
 11
470.645690743
 21
218.6549857697
 31
0.0
  0
LINE
  5
39A
330
1F
100
AcDbEntity
  8
0
  6
SLD-Solid
 62
     7
370
    15
100
AcDbLine
 10
474.7556903736
 20
218.6549857697
 30
0.0
 11
475.2006902696
 21
218.9665783634
 31
0.0
  0
LINE
  5
39B
330
1F
100
AcDbEntity
  8
0
  6
SLD-Solid
 62
     7
370
    15
100
AcDbLine
 10
470.200690847
 20
219.1161208293
 30
0.0
 11
470.200690847
 21
218.9665783634
 31
0.0
  0
LINE
  5
39C
330
1F
100
AcDbEntity
  8
0
  6
SLD-Solid
 62
     7
370
    15
100
AcDbLine
 10
475.2006902696
 20
218.9665783634
 30
0.0
 11
475.2006902696
 21
219.1161208293
 31
0.0
  0
LINE
  5
39D
330
1F
100
AcDbEntity
  8
0
  6
SLD-Solid
 62
     7
370
    15
100
AcDbLine
 10
470.200690847
 20
221.4343019268
 30
0.0
 11
470.200690847
 21
221.284759461
 31
0.0
  0
LINE
  5
39E
330
1F
100
AcDbEntity
  8
0
  6
SLD-Solid
 62
     7
370
    15
100
AcDbLine
 10
475.2006902696
 20
221.284759461
 30
0.0
 11
475.2006902696
 21
221.4343019268
 31
0.0
  0
LINE
  5
39F
330
1F
100
AcDbEntity
  8
0
  6
SLD-Solid
 62
     7
370
    15
100
AcDbLine
 10
475.2006902696
 20
221.4343019268
 30
0.0
 11
474.8855204658
 21
221.6549862614
 31
0.0
  0
LINE
  5
3A0
330
1F
100
AcDbEntity
  8
0
  6
SLD-Solid
 62
     7
370
    15
100
AcDbLine
 10
470.5158606508
 20
221.6549862614
 30
0.0
 11
470.200690847
 21
221.4343019268
 31
0.0
  0
LINE
  5
3A1
330
1F
100
AcDbEntity
  8
0
  6
SLD-Solid
 62
     7
370
    15
100
AcDbLine
 10
470.200690847
 20
220.6615742734
 30
0.0
 11
470.200690847
 21
220.5120318076
 31
0.0
  0
LINE
  5
3A2
330
1F
100
AcDbEntity
  8
0
  6
SLD-Solid
 62
     7
370
    15
100
AcDbLine
 10
475.2006902696
 20
220.5120318076
 30
0.0
 11
475.2006902696
 21
220.6615742734
 31
0.0
  0
LINE
  5
3A3
330
1F
100
AcDbEntity
  8
0
  6
SLD-Solid
 62
     7
370
    15
100
AcDbLine
 10
490.2006904
 20
219.88884662
 30
0.0
 11
490.2006904
 21
219.7393041542
 31
0.0
  0
LINE
  5
3A4
330
1F
100
AcDbEntity
  8
0
  6
SLD-Solid
 62
     7
370
    15
100
AcDbLine
 10
495.2006902882
 20
219.7393041542
 30
0.0
 11
495.2006902882
 21
219.88884662
 31
0.0
  0
LINE
  5
3A5
330
1F
100
AcDbEntity
  8
0
  6
SLD-Solid
 62
     7
370
    15
100
AcDbLine
 10
495.2006902882
 20
219.1161208293
 30
0.0
 11
494.7556903922
 21
219.4277115604
 31
0.0
  0
LINE
  5
3A6
330
1F
100
AcDbEntity
  8
0
  6
SLD-Solid
 62
     7
370
    15
100
AcDbLine
 10
490.645690296
 20
219.4277115604
 30
0.0
 11
490.2006904
 21
219.1161208293
 31
0.0
  0
LINE
  5
3A7
330
1F
100
AcDbEntity
  8
0
  6
SLD-Solid
 62
     7
370
    15
100
AcDbLine
 10
495.2006902882
 20
219.88884662
 30
0.0
 11
494.7556903922
 21
220.2004392138
 31
0.0
  0
LINE
  5
3A8
330
1F
100
AcDbEntity
  8
0
  6
SLD-Solid
 62
     7
370
    15
100
AcDbLine
 10
490.645690296
 20
220.2004392138
 30
0.0
 11
490.2006904
 21
219.88884662
 31
0.0
  0
LINE
  5
3A9
330
1F
100
AcDbEntity
  8
0
  6
SLD-Solid
 62
     7
370
    15
100
AcDbLine
 10
490.2006904
 20
220.6615742734
 30
0.0
 11
490.2006904
 21
220.5120318076
 31
0.0
  0
LINE
  5
3AA
330
1F
100
AcDbEntity
  8
0
  6
SLD-Solid
 62
     7
370
    15
100
AcDbLine
 10
495.2006902882
 20
220.5120318076
 30
0.0
 11
495.2006902882
 21
220.6615742734
 31
0.0
  0
LINE
  5
3AB
330
1F
100
AcDbEntity
  8
0
  6
SLD-Solid
 62
     7
370
    15
100
AcDbLine
 10
490.2006904
 20
219.1161208293
 30
0.0
 11
490.2006904
 21
218.9665783634
 31
0.0
  0
LINE
  5
3AC
330
1F
100
AcDbEntity
  8
0
  6
SLD-Solid
 62
     7
370
    15
100
AcDbLine
 10
495.2006902882
 20
218.9665783634
 30
0.0
 11
495.2006902882
 21
219.1161208293
 31
0.0
  0
LINE
  5
3AD
330
1F
100
AcDbEntity
  8
0
  6
SLD-Solid
 62
     7
370
    15
100
AcDbLine
 10
490.2006904
 20
218.9665783634
 30
0.0
 11
490.645690296
 21
218.6549857697
 31
0.0
  0
LINE
  5
3AE
330
1F
100
AcDbEntity
  8
0
  6
SLD-Solid
 62
     7
370
    15
100
AcDbLine
 10
494.7556903922
 20
218.6549857697
 30
0.0
 11
495.2006902882
 21
218.9665783634
 31
0.0
  0
LINE
  5
3AF
330
1F
100
AcDbEntity
  8
0
  6
SLD-Solid
 62
     7
370
    15
100
AcDbLine
 10
490.2006904
 20
221.284759461
 30
0.0
 11
490.645690296
 21
220.9731668672
 31
0.0
  0
LINE
  5
3B0
330
1F
100
AcDbEntity
  8
0
  6
SLD-Solid
 62
     7
370
    15
100
AcDbLine
 10
494.7556903922
 20
220.9731668672
 30
0.0
 11
495.2006902882
 21
221.284759461
 31
0.0
  0
LINE
  5
3B1
330
1F
100
AcDbEntity
  8
0
  6
SLD-Solid
 62
     7
370
    15
100
AcDbLine
 10
495.2006902882
 20
220.6615742734
 30
0.0
 11
494.7556903922
 21
220.9731668672
 31
0.0
  0
LINE
  5
3B2
330
1F
100
AcDbEntity
  8
0
  6
SLD-Solid
 62
     7
370
    15
100
AcDbLine
 10
490.645690296
 20
220.9731668672
 30
0.0
 11
490.2006904
 21
220.6615742734
 31
0.0
  0
LINE
  5
3B3
330
1F
100
AcDbEntity
  8
0
  6
SLD-Solid
 62
     7
370
    15
100
AcDbLine
 10
490.2006904
 20
220.5120318076
 30
0.0
 11
490.645690296
 21
220.2004392138
 31
0.0
  0
LINE
  5
3B4
330
1F
100
AcDbEntity
  8
0
  6
SLD-Solid
 62
     7
370
    15
100
AcDbLine
 10
494.7556903922
 20
220.2004392138
 30
0.0
 11
495.2006902882
 21
220.5120318076
 31
0.0
  0
LINE
  5
3B5
330
1F
100
AcDbEntity
  8
0
  6
SLD-Solid
 62
     7
370
    15
100
AcDbLine
 10
495.2006902882
 20
221.4343019268
 30
0.0
 11
494.8855204844
 21
221.6549862614
 31
0.0
  0
LINE
  5
3B6
330
1F
100
AcDbEntity
  8
0
  6
SLD-Solid
 62
     7
370
    15
100
AcDbLine
 10
490.5158602038
 20
221.6549862614
 30
0.0
 11
490.2006904
 21
221.4343019268
 31
0.0
  0
LINE
  5
3B7
330
1F
100
AcDbEntity
  8
0
  6
SLD-Solid
 62
     7
370
    15
100
AcDbLine
 10
490.2006904
 20
221.4343019268
 30
0.0
 11
490.2006904
 21
221.284759461
 31
0.0
  0
LINE
  5
3B8
330
1F
100
AcDbEntity
  8
0
  6
SLD-Solid
 62
     7
370
    15
100
AcDbLine
 10
495.2006902882
 20
221.284759461
 30
0.0
 11
495.2006902882
 21
221.4343019268
 31
0.0
  0
LINE
  5
3B9
330
1F
100
AcDbEntity
  8
0
  6
SLD-Solid
 62
     7
370
    15
100
AcDbLine
 10
490.2006904
 20
219.7393041542
 30
0.0
 11
490.645690296
 21
219.4277115604
 31
0.0
  0
LINE
  5
3BA
330
1F
100
AcDbEntity
  8
0
  6
SLD-Solid
 62
     7
370
    15
100
AcDbLine
 10
494.7556903922
 20
219.4277115604
 30
0.0
 11
495.2006902882
 21
219.7393041542
 31
0.0
  0
LINE
  5
3BB
330
1F
100
AcDbEntity
  8
0
  6
SLD-Solid
 62
     7
370
    15
100
AcDbLine
 10
475.2006902696
 20
232.6549862018
 30
0.0
 11
475.2006902696
 21
230.654985874
 31
0.0
  0
LINE
  5
3BC
330
1F
100
AcDbEntity
  8
0
  6
SLD-Solid
 62
     7
370
    15
100
AcDbLine
 10
490.2006904
 20
230.654985874
 30
0.0
 11
490.2006904
 21
232.6549862018
 31
0.0
  0
ARC
  5
3BD
330
1F
100
AcDbEntity
  8
0
  6
SLD-Solid
 62
     7
370
    15
100
AcDbCircle
 10
489.7006904668
 20
166.6549861368
 30
0.0
 40
0.5
100
AcDbArc
 50
270.0
 51
0.0
  0
ARC
  5
3BE
330
1F
100
AcDbEntity
  8
0
  6
SLD-Solid
 62
     7
370
    15
100
AcDbCircle
 10
475.7006904668
 20
166.6549861368
 30
0.0
 40
0.5000000000000568
100
AcDbArc
 50
180.0
 51
270.0
  0
LINE
  5
3BF
330
1F
100
AcDbEntity
  8
0
  6
SLD-Solid
 62
     7
370
    15
100
AcDbLine
 10
475.2006902696
 20
171.5021275422
 30
0.0
 11
475.2006902696
 21
166.6549865594
 31
0.0
  0
LINE
  5
3C0
330
1F
100
AcDbEntity
  8
0
  6
SLD-Solid
 62
     7
370
    15
100
AcDbLine
 10
490.2006904
 20
166.6549865594
 30
0.0
 11
490.2006904
 21
171.5070505133
 31
0.0
  0
ARC
  5
3C1
330
1F
100
AcDbEntity
  8
0
  6
SLD-Solid
 62
     7
370
    15
100
AcDbCircle
 10
475.7006904668
 20
232.6549861368
 30
0.0
 40
0.5000000000000568
100
AcDbArc
 50
90.0
 51
180.0
  0
ARC
  5
3C2
330
1F
100
AcDbEntity
  8
0
  6
SLD-Solid
 62
     7
370
    15
100
AcDbCircle
 10
489.7006904668
 20
232.6549861368
 30
0.0
 40
0.5
100
AcDbArc
 50
0.0
 51
90.0
  0
ARC
  5
3C3
330
1F
100
AcDbEntity
  8
0
  6
SLD-Solid
 62
     7
370
    15
100
AcDbCircle
 10
487.2006904668
 20
165.6549861368
 30
0.0
 40
0.5
100
AcDbArc
 50
90.0
 51
180.0
  0
ARC
  5
3C4
330
1F
100
AcDbEntity
  8
0
  6
SLD-Solid
 62
     7
370
    15
100
AcDbCircle
 10
478.2006904668
 20
165.6549861368
 30
0.0
 40
0.5
100
AcDbArc
 50
0.0
 51
90.0
  0
ARC
  5
3C5
330
1F
100
AcDbEntity
  8
0
  6
SLD-Solid
 62
     7
370
    15
100
AcDbCircle
 10
478.2006904668
 20
233.6549861368
 30
0.0
 40
0.5
100
AcDbArc
 50
270.0
 51
0.0
  0
ARC
  5
3C6
330
1F
100
AcDbEntity
  8
0
  6
SLD-Solid
 62
     7
370
    15
100
AcDbCircle
 10
487.2006904668
 20
233.6549861368
 30
0.0
 40
0.5
100
AcDbArc
 50
180.0
 51
270.0
  0
SPLINE
  5
3C7
330
1F
100
AcDbEntity
  8
0
  6
SLD-Solid
 62
     7
370
    15
100
AcDbSpline
210
0.0
220
0.0
230
1.0
 70
     8
 71
     3
 72
    16
 73
    12
 74
     0
 42
0.00000001
 43
0.00000001
 40
0.0
 40
0.0
 40
0.0
 40
0.0
 40
0.0171614670761381
 40
0.1769670824444275
 40
0.3025916184493876
 40
0.4066953721166773
 40
0.4986000766463285
 40
0.6021307038791255
 40
0.7316924599084051
 40
0.9491292444566797
 40
1.0
 40
1.0
 40
1.0
 40
1.0
 10
474.8766202815972
 20
171.6514017870733
 30
0.0
 10
474.8832228442399
 20
171.6524060139193
 30
0.0
 10
474.9513077138121
 20
171.6627614861098
 30
0.0
 10
475.0730849104942
 20
171.6139472288876
 30
0.0
 10
475.1861184814974
 20
171.5295413666436
 30
0.0
 10
475.2375519490741
 20
171.4569258680178
 30
0.0
 10
475.2532572212511
 20
171.4210352333388
 30
0.0
 10
475.2508046679187
 20
171.4241037325643
 30
0.0
 10
475.237715832277
 20
171.4833361121763
 30
0.0
 10
475.2242487396969
 20
171.5626402677549
 30
0.0
 10
475.220277763512
 20
171.6402674962537
 30
0.0
 10
475.2195248716674
 20
171.6549855163404
 30
0.0
  0
SPLINE
  5
3C8
330
1F
100
AcDbEntity
  8
0
  6
SLD-Solid
 62
     7
370
    15
100
AcDbSpline
210
0.0
220
0.0
230
1.0
 70
     8
 71
     3
 72
    12
 73
     8
 74
     0
 42
0.00000001
 43
0.00000001
 40
0.0
 40
0.0
 40
0.0
 40
0.0
 40
0.1481248245304283
 40
0.3353427129115754
 40
0.5521267003037039
 40
0.8214006014507665
 40
0.9999999999999999
 40
0.9999999999999999
 40
0.9999999999999999
 40
0.9999999999999999
 10
490.1514849030576
 20
171.4282419970342
 30
0.0
 10
490.1516564926215
 20
171.4290957435307
 30
0.0
 10
490.1520449576208
 20
171.4310285570693
 30
0.0
 10
490.1806728863183
 20
171.4863628798817
 30
0.0
 10
490.2619729081563
 20
171.5719709495679
 30
0.0
 10
490.3883738684171
 20
171.6453084053555
 30
0.0
 10
490.4854172494057
 20
171.6458149028515
 30
0.0
 10
490.5241154470644
 20
171.6460168799468
 30
0.0
  0
LINE
  5
3C9
330
1F
100
AcDbEntity
  8
0
  6
SLD-Solid
 62
     7
370
    15
100
AcDbLine
 10
491.0756903106
 20
243.1549851289
 30
0.0
 11
491.0756903106
 21
243.4549864819
 31
0.0
  0
ARC
  5
3CA
330
1F
100
AcDbEntity
  8
0
  6
SLD-Solid
 62
     7
370
    15
100
AcDbCircle
 10
490.8256904668
 20
240.2049861368
 30
0.0
 40
0.2500000000000502
100
AcDbArc
 50
270.0
 51
348.4630409672
  0
LINE
  5
3CB
330
1F
100
AcDbEntity
  8
0
  6
SLD-Solid
 62
     7
370
    15
100
AcDbLine
 10
474.5756904
 20
239.9549868396
 30
0.0
 11
490.8256907352
 21
239.9549868396
 31
0.0
  0
ARC
  5
3CC
330
1F
100
AcDbEntity
  8
0
  6
SLD-Solid
 62
     7
370
    15
100
AcDbCircle
 10
474.5756904668
 20
240.2049861368
 30
0.0
 40
0.2500000000000284
100
AcDbArc
 50
191.5369590328
 51
270.0
  0
LINE
  5
3CD
330
1F
100
AcDbEntity
  8
0
  6
SLD-Solid
 62
     7
370
    15
100
AcDbLine
 10
474.325690359
 20
243.4549864819
 30
0.0
 11
474.325690359
 21
243.1549851289
 31
0.0
  0
LINE
  5
3CE
330
1F
100
AcDbEntity
  8
0
  6
SLD-Solid
 62
     7
370
    15
100
AcDbLine
 10
471.5756908395
 20
243.4549864819
 30
0.0
 11
474.325690359
 21
243.4549864819
 31
0.0
  0
ARC
  5
3CF
330
1F
100
AcDbEntity
  8
0
  6
SLD-Solid
 62
     7
370
    15
100
AcDbCircle
 10
471.5756904668
 20
243.7049861368
 30
0.0
 40
0.2500000000000284
100
AcDbArc
 50
180.0
 51
270.0
  0
LINE
  5
3D0
330
1F
100
AcDbEntity
  8
0
  6
SLD-Solid
 62
     7
370
    15
100
AcDbLine
 10
471.3256903329
 20
254.704986929
 30
0.0
 11
471.3256903329
 21
243.7049869886
 31
0.0
  0
ARC
  5
3D1
330
1F
100
AcDbEntity
  8
0
  6
SLD-Solid
 62
     7
370
    15
100
AcDbCircle
 10
471.5756904668
 20
254.7049861368
 30
0.0
 40
0.2499999999999716
100
AcDbArc
 50
90.0
 51
180.0
  0
LINE
  5
3D2
330
1F
100
AcDbEntity
  8
0
  6
SLD-Solid
 62
     7
370
    15
100
AcDbLine
 10
474.075690318
 20
254.9549874356
 30
0.0
 11
471.5756908395
 21
254.9549874356
 31
0.0
  0
ARC
  5
3D3
330
1F
100
AcDbEntity
  8
0
  6
SLD-Solid
 62
     7
370
    15
100
AcDbCircle
 10
474.0756904668
 20
254.7049861368
 30
0.0
 40
0.2500000000000568
100
AcDbArc
 50
0.0
 51
90.0
  0
LINE
  5
3D4
330
1F
100
AcDbEntity
  8
0
  6
SLD-Solid
 62
     7
370
    15
100
AcDbLine
 10
474.325690359
 20
251.9549850812
 30
0.0
 11
474.325690359
 21
254.704986929
 31
0.0
  0
LINE
  5
3D5
330
1F
100
AcDbEntity
  8
0
  6
SLD-Solid
 62
     7
370
    15
100
AcDbLine
 10
491.0756903106
 20
254.704986929
 30
0.0
 11
491.0756903106
 21
251.9549850812
 31
0.0
  0
ARC
  5
3D6
330
1F
100
AcDbEntity
  8
0
  6
SLD-Solid
 62
     7
370
    15
100
AcDbCircle
 10
491.3256904668
 20
254.7049861368
 30
0.0
 40
0.2500000000000568
100
AcDbArc
 50
90.0
 51
180.0
  0
LINE
  5
3D7
330
1F
100
AcDbEntity
  8
0
  6
SLD-Solid
 62
     7
370
    15
100
AcDbLine
 10
493.8256902957
 20
254.9549874356
 30
0.0
 11
491.3256908172
 21
254.9549874356
 31
0.0
  0
ARC
  5
3D8
330
1F
100
AcDbEntity
  8
0
  6
SLD-Solid
 62
     7
370
    15
100
AcDbCircle
 10
493.8256904668
 20
254.7049861368
 30
0.0
 40
0.25
100
AcDbArc
 50
0.0
 51
90.0
  0
LINE
  5
3D9
330
1F
100
AcDbEntity
  8
0
  6
SLD-Solid
 62
     7
370
    15
100
AcDbLine
 10
494.0756908023
 20
243.7049869886
 30
0.0
 11
494.0756908023
 21
254.704986929
 31
0.0
  0
ARC
  5
3DA
330
1F
100
AcDbEntity
  8
0
  6
SLD-Solid
 62
     7
370
    15
100
AcDbCircle
 10
493.8256904668
 20
243.7049861368
 30
0.0
 40
0.25
100
AcDbArc
 50
270.0
 51
0.0
  0
LINE
  5
3DB
330
1F
100
AcDbEntity
  8
0
  6
SLD-Solid
 62
     7
370
    15
100
AcDbLine
 10
491.0756903106
 20
243.4549864819
 30
0.0
 11
493.8256902957
 21
243.4549864819
 31
0.0
  0
LINE
  5
3DC
330
1F
100
AcDbEntity
  8
0
  6
SLD-Solid
 62
     7
370
    15
100
AcDbLine
 10
491.0756903106
 20
251.9549850812
 30
0.0
 11
474.325690359
 21
251.9549850812
 31
0.0
  0
LINE
  5
3DD
330
1F
100
AcDbEntity
  8
0
  6
SLD-Solid
 62
     7
370
    15
100
AcDbLine
 10
471.9506906682
 20
254.9549874356
 30
0.0
 11
471.9506906682
 21
256.0549874296
 31
0.0
  0
LINE
  5
3DE
330
1F
100
AcDbEntity
  8
0
  6
SLD-Solid
 62
     7
370
    15
100
AcDbLine
 10
471.9506906682
 20
256.0549874296
 30
0.0
 11
472.0506904983
 21
256.0549874296
 31
0.0
  0
LINE
  5
3DF
330
1F
100
AcDbEntity
  8
0
  6
SLD-Solid
 62
     7
370
    15
100
AcDbLine
 10
472.0506904983
 20
256.1549853971
 30
0.0
 11
472.0506904983
 21
256.0549874296
 31
0.0
  0
ARC
  5
3E0
330
1F
100
AcDbEntity
  8
0
  6
SLD-Solid
 62
     7
370
    15
100
AcDbCircle
 10
472.0506904668
 20
256.0549861368
 30
0.0
 40
0.1000000000000227
100
AcDbArc
 50
90.0
 51
180.0
  0
LINE
  5
3E1
330
1F
100
AcDbEntity
  8
0
  6
SLD-Solid
 62
     7
370
    15
100
AcDbLine
 10
493.3506906369
 20
256.0549874296
 30
0.0
 11
472.0506904983
 21
256.0549874296
 31
0.0
  0
LINE
  5
3E2
330
1F
100
AcDbEntity
  8
0
  6
SLD-Solid
 62
     7
370
    15
100
AcDbLine
 10
491.0756903106
 20
253.154986768
 30
0.0
 11
474.325690359
 21
253.154986768
 31
0.0
  0
LINE
  5
3E3
330
1F
100
AcDbEntity
  8
0
  6
SLD-Solid
 62
     7
370
    15
100
AcDbLine
 10
493.3506906369
 20
256.1549853971
 30
0.0
 11
493.3506906369
 21
256.0549874296
 31
0.0
  0
LINE
  5
3E4
330
1F
100
AcDbEntity
  8
0
  6
SLD-Solid
 62
     7
370
    15
100
AcDbLine
 10
493.3506906369
 20
256.0549874296
 30
0.0
 11
493.450690467
 21
256.0549874296
 31
0.0
  0
LINE
  5
3E5
330
1F
100
AcDbEntity
  8
0
  6
SLD-Solid
 62
     7
370
    15
100
AcDbLine
 10
493.450690467
 20
256.0549874296
 30
0.0
 11
493.450690467
 21
254.9549874356
 31
0.0
  0
ARC
  5
3E6
330
1F
100
AcDbEntity
  8
0
  6
SLD-Solid
 62
     7
370
    15
100
AcDbCircle
 10
493.3506904668
 20
256.0549861368
 30
0.0
 40
0.1000000000000227
100
AcDbArc
 50
0.0
 51
90.0
  0
LINE
  5
3E7
330
1F
100
AcDbEntity
  8
0
  6
SLD-Solid
 62
     7
370
    15
100
AcDbLine
 10
474.8006904834
 20
253.2849360695
 30
0.0
 11
474.8006904834
 21
251.9549850812
 31
0.0
  0
LINE
  5
3E8
330
1F
100
AcDbEntity
  8
0
  6
SLD-Solid
 62
     7
370
    15
100
AcDbLine
 10
490.7006904819
 20
253.154986768
 30
0.0
 11
490.7006904819
 21
251.9549850812
 31
0.0
  0
LINE
  5
3E9
330
1F
100
AcDbEntity
  8
0
  6
SLD-Solid
 62
     7
370
    15
100
AcDbLine
 10
471.4506905862
 20
256.1549853971
 30
0.0
 11
471.4506905862
 21
254.9214933505
 31
0.0
  0
LINE
  5
3EA
330
1F
100
AcDbEntity
  8
0
  6
SLD-Solid
 62
     7
370
    15
100
AcDbLine
 10
471.4506905862
 20
243.488480567
 30
0.0
 11
471.4506905862
 21
243.1549851289
 31
0.0
  0
LINE
  5
3EB
330
1F
100
AcDbEntity
  8
0
  6
SLD-Solid
 62
     7
370
    15
100
AcDbLine
 10
493.950690549
 20
243.1549851289
 30
0.0
 11
493.950690549
 21
243.488480567
 31
0.0
  0
LINE
  5
3EC
330
1F
100
AcDbEntity
  8
0
  6
SLD-Solid
 62
     7
370
    15
100
AcDbLine
 10
493.950690549
 20
254.9214933505
 30
0.0
 11
493.950690549
 21
256.1549853971
 31
0.0
  0
LINE
  5
3ED
330
1F
100
AcDbEntity
  8
0
  6
SLD-Solid
 62
     7
370
    15
100
AcDbLine
 10
484.2006903478
 20
238.154986172
 30
0.0
 11
484.2006903478
 21
239.9549868396
 31
0.0
  0
LINE
  5
3EE
330
1F
100
AcDbEntity
  8
0
  6
SLD-Solid
 62
     7
370
    15
100
AcDbLine
 10
481.2006904381
 20
238.154986172
 30
0.0
 11
484.2006903478
 21
238.154986172
 31
0.0
  0
LINE
  5
3EF
330
1F
100
AcDbEntity
  8
0
  6
SLD-Solid
 62
     7
370
    15
100
AcDbLine
 10
481.2006904381
 20
238.154986172
 30
0.0
 11
481.2006904381
 21
239.9549868396
 31
0.0
  0
LINE
  5
3F0
330
1F
100
AcDbEntity
  8
0
  6
SLD-Solid
 62
     7
370
    15
100
AcDbLine
 10
481.2006904381
 20
238.154986172
 30
0.0
 11
474.7006906533
 21
238.154986172
 31
0.0
  0
LINE
  5
3F1
330
1F
100
AcDbEntity
  8
0
  6
SLD-Solid
 62
     7
370
    15
100
AcDbLine
 10
490.7006904819
 20
238.154986172
 30
0.0
 11
484.2006903478
 21
238.154986172
 31
0.0
  0
LINE
  5
3F2
330
1F
100
AcDbEntity
  8
0
  6
SLD-Solid
 62
     7
370
    15
100
AcDbLine
 10
491.0006909036
 20
240.1549864998
 30
0.0
 11
497.2006896847
 21
240.1549864998
 31
0.0
  0
LINE
  5
3F3
330
1F
100
AcDbEntity
  8
0
  6
SLD-Solid
 62
     7
370
    15
100
AcDbLine
 10
491.0006909036
 20
243.1549851289
 30
0.0
 11
491.0006909036
 21
240.1549864998
 31
0.0
  0
LINE
  5
3F4
330
1F
100
AcDbEntity
  8
0
  6
SLD-Solid
 62
     7
370
    15
100
AcDbLine
 10
494.2006901243
 20
243.1549851289
 30
0.0
 11
491.0006909036
 21
243.1549851289
 31
0.0
  0
LINE
  5
3F5
330
1F
100
AcDbEntity
  8
0
  6
SLD-Solid
 62
     7
370
    15
100
AcDbLine
 10
494.2006901243
 20
256.1549853971
 30
0.0
 11
494.2006901243
 21
243.1549851289
 31
0.0
  0
LINE
  5
3F6
330
1F
100
AcDbEntity
  8
0
  6
SLD-Solid
 62
     7
370
    15
100
AcDbLine
 10
471.2006900796
 20
256.1549853971
 30
0.0
 11
494.2006901243
 21
256.1549853971
 31
0.0
  0
LINE
  5
3F7
330
1F
100
AcDbEntity
  8
0
  6
SLD-Solid
 62
     7
370
    15
100
AcDbLine
 10
471.2006900796
 20
243.1549851289
 30
0.0
 11
471.2006900796
 21
256.1549853971
 31
0.0
  0
LINE
  5
3F8
330
1F
100
AcDbEntity
  8
0
  6
SLD-Solid
 62
     7
370
    15
100
AcDbLine
 10
474.4006906972
 20
243.1549851289
 30
0.0
 11
471.2006900796
 21
243.1549851289
 31
0.0
  0
LINE
  5
3F9
330
1F
100
AcDbEntity
  8
0
  6
SLD-Solid
 62
     7
370
    15
100
AcDbLine
 10
474.4006906972
 20
240.1549864998
 30
0.0
 11
474.4006906972
 21
243.1549851289
 31
0.0
  0
LINE
  5
3FA
330
1F
100
AcDbEntity
  8
0
  6
SLD-Solid
 62
     7
370
    15
100
AcDbLine
 10
497.2006896847
 20
240.1549864998
 30
0.0
 11
497.2006896847
 21
259.1549877515
 31
0.0
  0
LINE
  5
3FB
330
1F
100
AcDbEntity
  8
0
  6
SLD-Solid
 62
     7
370
    15
100
AcDbLine
 10
497.2006896847
 20
259.1549877515
 30
0.0
 11
468.2006905192
 21
259.1549877515
 31
0.0
  0
LINE
  5
3FC
330
1F
100
AcDbEntity
  8
0
  6
SLD-Solid
 62
     7
370
    15
100
AcDbLine
 10
468.2006905192
 20
240.1549864998
 30
0.0
 11
474.4006906972
 21
240.1549864998
 31
0.0
  0
LINE
  5
3FD
330
1F
100
AcDbEntity
  8
0
  6
SLD-Solid
 62
     7
370
    15
100
AcDbLine
 10
468.2006905192
 20
259.1549877515
 30
0.0
 11
468.2006905192
 21
240.1549864998
 31
0.0
  0
SPLINE
  5
3FE
330
1F
100
AcDbEntity
  8
0
  6
SLD-Solid
 62
     7
370
    15
100
AcDbSpline
210
0.0
220
0.0
230
1.0
 70
     8
 71
     3
 72
    13
 73
     9
 74
     0
 42
0.00000001
 43
0.00000001
 40
0.0
 40
0.0
 40
0.0
 40
0.0
 40
0.0104150406726013
 40
0.1489888135535004
 40
0.3639075004886976
 40
0.5766070647928364
 40
0.7882859455067743
 40
1.0
 40
1.0
 40
1.0
 40
1.0
 10
493.2006908917025
 20
232.6549862017938
 30
0.0
 10
493.2033901697546
 20
232.655000988709
 30
0.0
 10
493.2420037716671
 20
232.6552125178827
 30
0.0
 10
493.3363259088264
 20
232.6670725737329
 30
0.0
 10
493.4746361300729
 20
232.725304095828
 30
0.0
 10
493.599614672165
 20
232.839117324205
 30
0.0
 10
493.6843653178262
 20
232.9877003551409
 30
0.0
 10
493.6952481661319
 20
233.0992218401769
 30
0.0
 10
493.7006900423363
 20
233.1549872150728
 30
0.0
  0
LINE
  5
3FF
330
1F
100
AcDbEntity
  8
0
  6
SLD-Solid
 62
     7
370
    15
100
AcDbLine
 10
493.2006908917
 20
232.6549862018
 30
0.0
 11
490.2006904
 21
232.6549862018
 31
0.0
  0
LINE
  5
400
330
1F
100
AcDbEntity
  8
0
  6
SLD-Solid
 62
     7
370
    15
100
AcDbLine
 10
475.2006902696
 20
232.6549862018
 30
0.0
 11
472.2006902435
 21
232.6549862018
 31
0.0
  0
SPLINE
  5
401
330
1F
100
AcDbEntity
  8
0
  6
SLD-Solid
 62
     7
370
    15
100
AcDbSpline
210
0.0
220
0.0
230
1.0
 70
     8
 71
     3
 72
    13
 73
     9
 74
     0
 42
0.00000001
 43
0.00000001
 40
0.0
 40
0.0
 40
0.0
 40
0.0
 40
0.2117139343241563
 40
0.4233932624898019
 40
0.6360927060654952
 40
0.8510112710126712
 40
0.9895849652389842
 40
0.9999999999999999
 40
0.9999999999999999
 40
0.9999999999999999
 40
0.9999999999999999
 10
471.7006901615456
 20
233.1549872150728
 30
0.0
 10
471.7061319619767
 20
233.0992217979228
 30
0.0
 10
471.7170146733375
 20
232.9877000788797
 30
0.0
 10
471.8017666245124
 20
232.8391175754797
 30
0.0
 10
471.9267449298005
 20
232.7253040542892
 30
0.0
 10
472.0650552397329
 20
232.6670725810969
 30
0.0
 10
472.1593773633963
 20
232.655212517805
 30
0.0
 10
472.1979909654407
 20
232.6550009887039
 30
0.0
 10
472.200690243502
 20
232.6549862017938
 30
0.0
  0
LINE
  5
402
330
1F
100
AcDbEntity
  8
0
  6
SLD-Solid
 62
     7
370
    15
100
AcDbLine
 10
472.2006902435
 20
237.6549851587
 30
0.0
 11
493.2006908917
 21
237.6549851587
 31
0.0
  0
SPLINE
  5
403
330
1F
100
AcDbEntity
  8
0
  6
SLD-Solid
 62
     7
370
    15
100
AcDbSpline
210
0.0
220
0.0
230
1.0
 70
     8
 71
     3
 72
    13
 73
     9
 74
     0
 42
0.00000001
 43
0.00000001
 40
0.0
 40
0.0
 40
0.0
 40
0.0
 40
0.2117145524953747
 40
0.4233897881016032
 40
0.636089852726046
 40
0.8510108736853469
 40
0.9895849725249399
 40
1.0
 40
1.0
 40
1.0
 40
1.0
 10
493.7006900423363
 20
237.1549878707239
 30
0.0
 10
493.695248371711
 20
237.2107534075342
 30
0.0
 10
493.684366041017
 20
237.3222741251006
 30
0.0
 10
493.5996135287347
 20
237.4708539417771
 30
0.0
 10
493.474635396354
 20
237.5846698668148
 30
0.0
 10
493.3363265852938
 20
237.6428920222818
 30
0.0
 10
493.2420039043918
 20
237.6547785762358
 30
0.0
 10
493.2033901699334
 20
237.6549716611837
 30
0.0
 10
493.2006908917025
 20
237.6549851587125
 30
0.0
  0
LINE
  5
404
330
1F
100
AcDbEntity
  8
0
  6
SLD-Solid
 62
     7
370
    15
100
AcDbLine
 10
493.7006900423
 20
237.1549878707
 30
0.0
 11
471.7006901615
 21
237.1549878707
 31
0.0
  0
SPLINE
  5
405
330
1F
100
AcDbEntity
  8
0
  6
SLD-Solid
 62
     7
370
    15
100
AcDbSpline
210
0.0
220
0.0
230
1.0
 70
     8
 71
     3
 72
    13
 73
     9
 74
     0
 42
0.00000001
 43
0.00000001
 40
0.0
 40
0.0
 40
0.0
 40
0.0
 40
0.0104150215633524
 40
0.14898904174645
 40
0.3639099407137301
 40
0.5766098846067965
 40
0.788285567676612
 40
1.0
 40
1.0
 40
1.0
 40
1.0
 10
472.200690243502
 20
237.6549851587125
 30
0.0
 10
472.1979909652619
 20
237.6549716611887
 30
0.0
 10
472.1593772306716
 20
237.6547785763136
 30
0.0
 10
472.0650545632658
 20
237.6428920149174
 30
0.0
 10
471.9267456635177
 20
237.5846699083554
 30
0.0
 10
471.8017677679424
 20
237.470853690494
 30
0.0
 10
471.7170139501457
 20
237.322274401369
 30
0.0
 10
471.7061317563968
 20
237.2107534497899
 30
0.0
 10
471.7006901615456
 20
237.1549878707239
 30
0.0
  0
LINE
  5
406
330
1F
100
AcDbEntity
  8
0
  6
SLD-Solid
 62
     7
370
    15
100
AcDbLine
 10
493.7006900423
 20
237.1549878707
 30
0.0
 11
493.7006900423
 21
233.1549872151
 31
0.0
  0
LINE
  5
407
330
1F
100
AcDbEntity
  8
0
  6
SLD-Solid
 62
     7
370
    15
100
AcDbLine
 10
471.7006901615
 20
237.1549878707
 30
0.0
 11
471.7006901615
 21
233.1549872151
 31
0.0
  0
LINE
  5
408
330
1F
100
AcDbEntity
  8
0
  6
SLD-Solid
 62
     7
370
    15
100
AcDbLine
 10
470.200690847
 20
219.1161208293
 30
0.0
 11
475.2006902696
 21
219.1161208293
 31
0.0
  0
LINE
  5
409
330
1F
100
AcDbEntity
  8
0
  6
SLD-Solid
 62
     7
370
    15
100
AcDbLine
 10
470.645690743
 20
219.4277115604
 30
0.0
 11
474.7556903736
 21
219.4277115604
 31
0.0
  0
LINE
  5
40A
330
1F
100
AcDbEntity
  8
0
  6
SLD-Solid
 62
     7
370
    15
100
AcDbLine
 10
470.200690847
 20
219.7393041542
 30
0.0
 11
475.2006902696
 21
219.7393041542
 31
0.0
  0
LINE
  5
40B
330
1F
100
AcDbEntity
  8
0
  6
SLD-Solid
 62
     7
370
    15
100
AcDbLine
 10
470.200690847
 20
220.6615742734
 30
0.0
 11
475.2006902696
 21
220.6615742734
 31
0.0
  0
LINE
  5
40C
330
1F
100
AcDbEntity
  8
0
  6
SLD-Solid
 62
     7
370
    15
100
AcDbLine
 10
470.645690743
 20
220.9731668672
 30
0.0
 11
474.7556903736
 21
220.9731668672
 31
0.0
  0
LINE
  5
40D
330
1F
100
AcDbEntity
  8
0
  6
SLD-Solid
 62
     7
370
    15
100
AcDbLine
 10
470.645690743
 20
220.2004392138
 30
0.0
 11
474.7556903736
 21
220.2004392138
 31
0.0
  0
LINE
  5
40E
330
1F
100
AcDbEntity
  8
0
  6
SLD-Solid
 62
     7
370
    15
100
AcDbLine
 10
470.200690847
 20
220.5120318076
 30
0.0
 11
475.2006902696
 21
220.5120318076
 31
0.0
  0
LINE
  5
40F
330
1F
100
AcDbEntity
  8
0
  6
SLD-Solid
 62
     7
370
    15
100
AcDbLine
 10
470.200690847
 20
219.88884662
 30
0.0
 11
475.2006902696
 21
219.88884662
 31
0.0
  0
LINE
  5
410
330
1F
100
AcDbEntity
  8
0
  6
SLD-Solid
 62
     7
370
    15
100
AcDbLine
 10
470.200690847
 20
221.284759461
 30
0.0
 11
475.2006902696
 21
221.284759461
 31
0.0
  0
LINE
  5
411
330
1F
100
AcDbEntity
  8
0
  6
SLD-Solid
 62
     7
370
    15
100
AcDbLine
 10
470.645690743
 20
218.6549857697
 30
0.0
 11
474.7556903736
 21
218.6549857697
 31
0.0
  0
LINE
  5
412
330
1F
100
AcDbEntity
  8
0
  6
SLD-Solid
 62
     7
370
    15
100
AcDbLine
 10
470.200690847
 20
218.9665783634
 30
0.0
 11
475.2006902696
 21
218.9665783634
 31
0.0
  0
LINE
  5
413
330
1F
100
AcDbEntity
  8
0
  6
SLD-Solid
 62
     7
370
    15
100
AcDbLine
 10
470.200690847
 20
221.4343019268
 30
0.0
 11
475.2006902696
 21
221.4343019268
 31
0.0
  0
LINE
  5
414
330
1F
100
AcDbEntity
  8
0
  6
SLD-Solid
 62
     7
370
    15
100
AcDbLine
 10
490.2006904
 20
219.88884662
 30
0.0
 11
495.2006902882
 21
219.88884662
 31
0.0
  0
LINE
  5
415
330
1F
100
AcDbEntity
  8
0
  6
SLD-Solid
 62
     7
370
    15
100
AcDbLine
 10
490.2006904
 20
219.7393041542
 30
0.0
 11
495.2006902882
 21
219.7393041542
 31
0.0
  0
LINE
  5
416
330
1F
100
AcDbEntity
  8
0
  6
SLD-Solid
 62
     7
370
    15
100
AcDbLine
 10
490.2006904
 20
219.1161208293
 30
0.0
 11
495.2006902882
 21
219.1161208293
 31
0.0
  0
LINE
  5
417
330
1F
100
AcDbEntity
  8
0
  6
SLD-Solid
 62
     7
370
    15
100
AcDbLine
 10
490.645690296
 20
219.4277115604
 30
0.0
 11
494.7556903922
 21
219.4277115604
 31
0.0
  0
LINE
  5
418
330
1F
100
AcDbEntity
  8
0
  6
SLD-Solid
 62
     7
370
    15
100
AcDbLine
 10
490.645690296
 20
220.2004392138
 30
0.0
 11
494.7556903922
 21
220.2004392138
 31
0.0
  0
LINE
  5
419
330
1F
100
AcDbEntity
  8
0
  6
SLD-Solid
 62
     7
370
    15
100
AcDbLine
 10
490.2006904
 20
220.6615742734
 30
0.0
 11
495.2006902882
 21
220.6615742734
 31
0.0
  0
LINE
  5
41A
330
1F
100
AcDbEntity
  8
0
  6
SLD-Solid
 62
     7
370
    15
100
AcDbLine
 10
490.2006904
 20
220.5120318076
 30
0.0
 11
495.2006902882
 21
220.5120318076
 31
0.0
  0
LINE
  5
41B
330
1F
100
AcDbEntity
  8
0
  6
SLD-Solid
 62
     7
370
    15
100
AcDbLine
 10
490.2006904
 20
218.9665783634
 30
0.0
 11
495.2006902882
 21
218.9665783634
 31
0.0
  0
LINE
  5
41C
330
1F
100
AcDbEntity
  8
0
  6
SLD-Solid
 62
     7
370
    15
100
AcDbLine
 10
490.645690296
 20
218.6549857697
 30
0.0
 11
494.7556903922
 21
218.6549857697
 31
0.0
  0
LINE
  5
41D
330
1F
100
AcDbEntity
  8
0
  6
SLD-Solid
 62
     7
370
    15
100
AcDbLine
 10
490.645690296
 20
220.9731668672
 30
0.0
 11
494.7556903922
 21
220.9731668672
 31
0.0
  0
LINE
  5
41E
330
1F
100
AcDbEntity
  8
0
  6
SLD-Solid
 62
     7
370
    15
100
AcDbLine
 10
490.2006904
 20
221.284759461
 30
0.0
 11
495.2006902882
 21
221.284759461
 31
0.0
  0
LINE
  5
41F
330
1F
100
AcDbEntity
  8
0
  6
SLD-Solid
 62
     7
370
    15
100
AcDbLine
 10
490.2006904
 20
221.4343019268
 30
0.0
 11
495.2006902882
 21
221.4343019268
 31
0.0
  0
CIRCLE
  5
420
330
1F
100
AcDbEntity
  8
0
  6
SLD-Solid
 62
     7
370
    15
100
AcDbCircle
 10
482.7006904668
 20
199.6549861368
 30
0.0
 40
14.24999999999994
  0
CIRCLE
  5
421
330
1F
100
AcDbEntity
  8
0
  6
SLD-Solid
 62
     7
370
    15
100
AcDbCircle
 10
472.7006904668
 20
199.6549861368
 30
0.0
 40
2.5
  0
CIRCLE
  5
422
330
1F
100
AcDbEntity
  8
0
  6
SLD-Solid
 62
     7
370
    15
100
AcDbCircle
 10
492.7006904668
 20
199.6549861368
 30
0.0
 40
2.5
  0
CIRCLE
  5
423
330
1F
100
AcDbEntity
  8
0
  6
SLD-Solid
 62
     7
370
    15
100
AcDbCircle
 10
482.7006904668
 20
199.6549861368
 30
0.0
 40
14.49999999999994
  0
CIRCLE
  5
424
330
1F
100
AcDbEntity
  8
0
  6
SLD-Solid
 62
     7
370
    15
100
AcDbCircle
 10
472.7006904668
 20
199.6549861368
 30
0.0
 40
2.0
  0
CIRCLE
  5
425
330
1F
100
AcDbEntity
  8
0
  6
SLD-Solid
 62
     7
370
    15
100
AcDbCircle
 10
492.7006904668
 20
199.6549861368
 30
0.0
 40
2.0
  0
LINE
  5
426
330
1F
100
AcDbEntity
  8
0
  6
SLD-Solid
 62
     7
370
    15
100
AcDbLine
 10
498.2006898486
 20
171.6549855163
 30
0.0
 11
467.2006903553
 21
171.6549855163
 31
0.0
  0
ARC
  5
427
330
1F
100
AcDbEntity
  8
0
  6
SLD-Solid
 62
     7
370
    15
100
AcDbCircle
 10
467.2006904668
 20
172.1549861368
 30
0.0
 40
0.5
100
AcDbArc
 50
180.0
 51
270.0
  0
LINE
  5
428
330
1F
100
AcDbEntity
  8
0
  6
SLD-Solid
 62
     7
370
    15
100
AcDbLine
 10
466.7006902733
 20
172.1549865296
 30
0.0
 11
498.7006908619
 21
172.1549865296
 31
0.0
  0
ARC
  5
429
330
1F
100
AcDbEntity
  8
0
  6
SLD-Solid
 62
     7
370
    15
100
AcDbCircle
 10
498.2006904668
 20
172.1549861368
 30
0.0
 40
0.5
100
AcDbArc
 50
270.0
 51
0.0
  0
CIRCLE
  5
42A
330
1F
100
AcDbEntity
  8
0
  6
SLD-Solid
 62
     7
370
    15
100
AcDbCircle
 10
482.7006904668
 20
180.6549861368
 30
0.0
 40
1.5
  0
CIRCLE
  5
42B
330
1F
100
AcDbEntity
  8
0
  6
SLD-Solid
 62
     7
370
    15
100
AcDbCircle
 10
482.7006904668
 20
218.6549861368
 30
0.0
 40
1.5
  0
ARC
  5
42C
330
1F
100
AcDbEntity
  8
0
  6
SLD-Solid
 62
     7
370
    15
100
AcDbCircle
 10
495.9506904668
 20
212.5657374705
 30
0.0
 40
1.0
100
AcDbArc
 50
224.2570386425
 51
0.0
  0
LINE
  5
42D
330
1F
100
AcDbEntity
  8
0
  6
SLD-Solid
 62
     7
370
    15
100
AcDbLine
 10
496.9506910407
 20
212.5657370752
 30
0.0
 11
496.9506910407
 21
220.6549860975
 31
0.0
  0
ARC
  5
42E
330
1F
100
AcDbEntity
  8
0
  6
SLD-Solid
 62
     7
370
    15
100
AcDbCircle
 10
495.9506904668
 20
220.6549861368
 30
0.0
 40
1.0
100
AcDbArc
 50
0.0
 51
90.0
  0
LINE
  5
42F
330
1F
100
AcDbEntity
  8
0
  6
SLD-Solid
 62
     7
370
    15
100
AcDbLine
 10
495.9506908768
 20
221.6549862614
 30
0.0
 11
489.700690318
 21
221.6549862614
 31
0.0
  0
ARC
  5
430
330
1F
100
AcDbEntity
  8
0
  6
SLD-Solid
 62
     7
370
    15
100
AcDbCircle
 10
489.7006904668
 20
220.6549861368
 30
0.0
 40
1.0
100
AcDbArc
 50
90.0
 51
180.0
  0
LINE
  5
431
330
1F
100
AcDbEntity
  8
0
  6
SLD-Solid
 62
     7
370
    15
100
AcDbLine
 10
488.7006901541
 20
220.6549860975
 30
0.0
 11
488.7006901541
 21
216.7795293471
 31
0.0
  0
ARC
  5
432
330
1F
100
AcDbEntity
  8
0
  6
SLD-Solid
 62
     7
370
    15
100
AcDbCircle
 10
489.7006904668
 20
216.7795299264
 30
0.0
 40
1.0
100
AcDbArc
 50
180.0
 51
247.7667282017
  0
ARC
  5
433
330
1F
100
AcDbEntity
  8
0
  6
SLD-Solid
 62
     7
370
    15
100
AcDbCircle
 10
482.7006904668
 20
199.6549861368
 30
0.0
 40
17.49999999999999
100
AcDbArc
 50
44.2570386425
 51
67.7667282017
  0
ARC
  5
434
330
1F
100
AcDbEntity
  8
0
  6
SLD-Solid
 62
     7
370
    15
100
AcDbCircle
 10
495.9506904668
 20
186.7442348031
 30
0.0
 40
1.0
100
AcDbArc
 50
0.0
 51
135.7429613575
  0
ARC
  5
435
330
1F
100
AcDbEntity
  8
0
  6
SLD-Solid
 62
     7
370
    15
100
AcDbCircle
 10
482.7006904668
 20
199.6549861368
 30
0.0
 40
17.49999999999999
100
AcDbArc
 50
292.2332717983
 51
315.7429613575
  0
ARC
  5
436
330
1F
100
AcDbEntity
  8
0
  6
SLD-Solid
 62
     7
370
    15
100
AcDbCircle
 10
489.7006904668
 20
182.5304423473
 30
0.0
 40
1.000000000000013
100
AcDbArc
 50
112.2332717983
 51
180.0
  0
LINE
  5
437
330
1F
100
AcDbEntity
  8
0
  6
SLD-Solid
 62
     7
370
    15
100
AcDbLine
 10
488.7006901541
 20
182.5304415515
 30
0.0
 11
488.7006901541
 21
178.6549866637
 31
0.0
  0
ARC
  5
438
330
1F
100
AcDbEntity
  8
0
  6
SLD-Solid
 62
     7
370
    15
100
AcDbCircle
 10
489.7006904668
 20
178.6549861368
 30
0.0
 40
1.0
100
AcDbArc
 50
180.0
 51
270.0
  0
LINE
  5
439
330
1F
100
AcDbEntity
  8
0
  6
SLD-Solid
 62
     7
370
    15
100
AcDbLine
 10
489.700690318
 20
177.6549864998
 30
0.0
 11
495.9506908768
 21
177.6549864998
 31
0.0
  0
ARC
  5
43A
330
1F
100
AcDbEntity
  8
0
  6
SLD-Solid
 62
     7
370
    15
100
AcDbCircle
 10
495.9506904668
 20
178.6549861368
 30
0.0
 40
1.0
100
AcDbArc
 50
270.0
 51
0.0
  0
LINE
  5
43B
330
1F
100
AcDbEntity
  8
0
  6
SLD-Solid
 62
     7
370
    15
100
AcDbLine
 10
496.9506910407
 20
178.6549866637
 30
0.0
 11
496.9506910407
 21
186.7442347547
 31
0.0
  0
ARC
  5
43C
330
1F
100
AcDbEntity
  8
0
  6
SLD-Solid
 62
     7
370
    15
100
AcDbCircle
 10
475.7006904668
 20
216.7795299264
 30
0.0
 40
1.0
100
AcDbArc
 50
292.2332717983
 51
0.0
  0
LINE
  5
43D
330
1F
100
AcDbEntity
  8
0
  6
SLD-Solid
 62
     7
370
    15
100
AcDbLine
 10
476.7006905154
 20
216.7795293471
 30
0.0
 11
476.7006905154
 21
220.6549860975
 31
0.0
  0
ARC
  5
43E
330
1F
100
AcDbEntity
  8
0
  6
SLD-Solid
 62
     7
370
    15
100
AcDbCircle
 10
475.7006904668
 20
220.6549861368
 30
0.0
 40
1.0
100
AcDbArc
 50
0.0
 51
90.0
  0
LINE
  5
43F
330
1F
100
AcDbEntity
  8
0
  6
SLD-Solid
 62
     7
370
    15
100
AcDbLine
 10
475.7006903515
 20
221.6549862614
 30
0.0
 11
469.4506902584
 21
221.6549862614
 31
0.0
  0
ARC
  5
440
330
1F
100
AcDbEntity
  8
0
  6
SLD-Solid
 62
     7
370
    15
100
AcDbCircle
 10
469.4506904668
 20
220.6549861368
 30
0.0
 40
1.0
100
AcDbArc
 50
90.0
 51
180.0
  0
LINE
  5
441
330
1F
100
AcDbEntity
  8
0
  6
SLD-Solid
 62
     7
370
    15
100
AcDbLine
 10
468.4506900945
 20
220.6549860975
 30
0.0
 11
468.4506900945
 21
212.5657370752
 31
0.0
  0
ARC
  5
442
330
1F
100
AcDbEntity
  8
0
  6
SLD-Solid
 62
     7
370
    15
100
AcDbCircle
 10
469.4506904668
 20
212.5657374705
 30
0.0
 40
1.000000000000034
100
AcDbArc
 50
180.0
 51
315.7429613575
  0
ARC
  5
443
330
1F
100
AcDbEntity
  8
0
  6
SLD-Solid
 62
     7
370
    15
100
AcDbCircle
 10
482.7006904668
 20
199.6549861368
 30
0.0
 40
17.50000000000003
100
AcDbArc
 50
112.2332717983
 51
135.7429613575
  0
ARC
  5
444
330
1F
100
AcDbEntity
  8
0
  6
SLD-Solid
 62
     7
370
    15
100
AcDbCircle
 10
469.4506904668
 20
186.7442348031
 30
0.0
 40
1.000000000000014
100
AcDbArc
 50
44.2570386425
 51
180.0
  0
LINE
  5
445
330
1F
100
AcDbEntity
  8
0
  6
SLD-Solid
 62
     7
370
    15
100
AcDbLine
 10
468.4506900945
 20
186.7442347547
 30
0.0
 11
468.4506900945
 21
178.6549866637
 31
0.0
  0
ARC
  5
446
330
1F
100
AcDbEntity
  8
0
  6
SLD-Solid
 62
     7
370
    15
100
AcDbCircle
 10
469.4506904668
 20
178.6549861368
 30
0.0
 40
1.0
100
AcDbArc
 50
180.0
 51
270.0
  0
LINE
  5
447
330
1F
100
AcDbEntity
  8
0
  6
SLD-Solid
 62
     7
370
    15
100
AcDbLine
 10
469.4506902584
 20
177.6549864998
 30
0.0
 11
475.7006903515
 21
177.6549864998
 31
0.0
  0
ARC
  5
448
330
1F
100
AcDbEntity
  8
0
  6
SLD-Solid
 62
     7
370
    15
100
AcDbCircle
 10
475.7006904668
 20
178.6549861368
 30
0.0
 40
1.0
100
AcDbArc
 50
270.0
 51
0.0
  0
LINE
  5
449
330
1F
100
AcDbEntity
  8
0
  6
SLD-Solid
 62
     7
370
    15
100
AcDbLine
 10
476.7006905154
 20
178.6549866637
 30
0.0
 11
476.7006905154
 21
182.5304415515
 31
0.0
  0
ARC
  5
44A
330
1F
100
AcDbEntity
  8
0
  6
SLD-Solid
 62
     7
370
    15
100
AcDbCircle
 10
475.7006904668
 20
182.5304423473
 30
0.0
 40
1.0
100
AcDbArc
 50
0.0
 51
67.7667282017
  0
ARC
  5
44B
330
1F
100
AcDbEntity
  8
0
  6
SLD-Solid
 62
     7
370
    15
100
AcDbCircle
 10
482.7006904668
 20
199.6549861368
 30
0.0
 40
17.50000000000003
100
AcDbArc
 50
224.2570386425
 51
247.7667282017
  0
LINE
  5
44C
330
1F
100
AcDbEntity
  8
0
  6
SLD-Solid
 62
     7
370
    15
100
AcDbLine
 10
498.7006908619
 20
227.1549862316
 30
0.0
 11
466.7006902733
 21
227.1549862316
 31
0.0
  0
LINE
  5
44D
330
1F
100
AcDbEntity
  8
0
  6
SLD-Solid
 62
     7
370
    15
100
AcDbLine
 10
498.7006908619
 20
172.1549865296
 30
0.0
 11
498.7006908619
 21
227.1549862316
 31
0.0
  0
LINE
  5
44E
330
1F
100
AcDbEntity
  8
0
  6
SLD-Solid
 62
     7
370
    15
100
AcDbLine
 10
466.7006902733
 20
227.1549862316
 30
0.0
 11
466.7006902733
 21
172.1549865296
 31
0.0
  0
ARC
  5
44F
330
1F
100
AcDbEntity
  8
0
  6
SLD-Solid
 62
     7
370
    15
100
AcDbCircle
 10
498.2006904668
 20
227.1549861368
 30
0.0
 40
0.5
100
AcDbArc
 50
0.0
 51
90.0
  0
ARC
  5
450
330
1F
100
AcDbEntity
  8
0
  6
SLD-Solid
 62
     7
370
    15
100
AcDbCircle
 10
467.2006904668
 20
227.1549861368
 30
0.0
 40
0.5
100
AcDbArc
 50
90.0
 51
180.0
  0
CIRCLE
  5
451
330
1F
100
AcDbEntity
  8
0
  6
SLD-Solid
 62
     7
370
    15
100
AcDbCircle
 10
482.7006904668
 20
218.6549861368
 30
0.0
 40
0.4499999999999318
  0
CIRCLE
  5
452
330
1F
100
AcDbEntity
  8
0
  6
SLD-Solid
 62
     7
370
    15
100
AcDbCircle
 10
482.7006904668
 20
218.6549861368
 30
0.0
 40
1.449999999999989
  0
CIRCLE
  5
453
330
1F
100
AcDbEntity
  8
0
  6
SLD-Solid
 62
     7
370
    15
100
AcDbCircle
 10
482.7006904668
 20
180.6549861368
 30
0.0
 40
0.4499999999999886
  0
CIRCLE
  5
454
330
1F
100
AcDbEntity
  8
0
  6
SLD-Solid
 62
     7
370
    15
100
AcDbCircle
 10
482.7006904668
 20
180.6549861368
 30
0.0
 40
1.449999999999989
  0
LINE
  5
455
330
1F
100
AcDbEntity
  8
0
  6
SLD-Solid
 62
     7
370
    15
100
AcDbLine
 10
490.044440549
 20
171.1549863657
 30
0.0
 11
475.3569405862
 21
171.1549863657
 31
0.0
  0
ARC
  5
456
330
1F
100
AcDbEntity
  8
0
  6
SLD-Solid
 62
     7
370
    15
100
AcDbCircle
 10
474.8620945735
 20
171.1601406456
 30
0.0
 40
0.4948728552885633
100
AcDbArc
 50
359.4032329317
 51
89.3906709461
  0
ARC
  5
457
330
1F
100
AcDbEntity
  8
0
  6
SLD-Solid
 62
     7
370
    15
100
AcDbCircle
 10
490.5392860855
 20
171.1601411118
 30
0.0
 40
0.4948723840024556
100
AcDbArc
 50
90.6092745008
 51
180.5968216213
  0
LINE
  5
458
330
1F
100
AcDbEntity
  8
0
  6
SLD-Solid
 62
     7
370
    15
100
AcDbLine
 10
489.700690318
 20
166.1549855461
 30
0.0
 11
475.7006912829
 21
166.1549855461
 31
0.0
  0
LINE
  5
459
330
1F
100
AcDbEntity
  8
0
  6
SLD-Solid
 62
     7
370
    15
100
AcDbLine
 10
475.7006903515
 20
233.1549872151
 30
0.0
 11
489.7006893867
 21
233.1549872151
 31
0.0
  0
LINE
  5
45A
330
1F
100
AcDbEntity
  8
0
  6
SLD-Solid
 62
     7
370
    15
100
AcDbLine
 10
486.7006902919
 20
165.6549845329
 30
0.0
 11
478.700690494
 21
165.6549845329
 31
0.0
  0
LINE
  5
45B
330
1F
100
AcDbEntity
  8
0
  6
SLD-Solid
 62
     7
370
    15
100
AcDbLine
 10
478.700690494
 20
233.6549845031
 30
0.0
 11
486.7006902919
 21
233.6549845031
 31
0.0
  0
LINE
  5
45C
330
1F
100
AcDbEntity
  8
0
  6
SLD-Solid
 62
     7
370
    15
100
AcDbLine
 10
483.6454952006
 20
161.6549876025
 30
0.0
 11
477.7558857446
 21
161.6549876025
 31
0.0
  0
SPLINE
  5
45D
330
1F
100
AcDbEntity
  8
0
  6
SLD-Solid
 62
     7
370
    15
100
AcDbSpline
210
0.0
220
0.0
230
1.0
 70
     8
 71
     3
 72
    13
 73
     9
 74
     0
 42
0.00000001
 43
0.00000001
 40
0.0
 40
0.0
 40
0.0
 40
0.0
 40
0.0068863989995406
 40
0.1828680964564361
 40
0.3975822392527473
 40
0.6014166744524837
 40
0.8006261452082951
 40
1.0
 40
1.0
 40
1.0
 40
1.0
 10
477.7558857445762
 20
161.654987602503
 30
0.0
 10
477.7544630702695
 20
161.6549931837895
 30
0.0
 10
477.7166840013613
 20
161.6551413946687
 30
0.0
 10
477.6345534602542
 20
161.6697726454207
 30
0.0
 10
477.5209195331963
 20
161.7357643002673
 30
0.0
 10
477.4264283706353
 20
161.8493275211861
 30
0.0
 10
477.3630511335255
 20
161.9934013810967
 30
0.0
 10
477.3548790953439
 20
162.1011089137527
 30
0.0
 10
477.350791391094
 20
162.1549848904916
 30
0.0
  0
LINE
  5
45E
330
1F
100
AcDbEntity
  8
0
  6
SLD-Solid
 62
     7
370
    15
100
AcDbLine
 10
477.3507913911
 20
162.1549848905
 30
0.0
 11
483.550589705
 21
162.1549848905
 31
0.0
  0
SPLINE
  5
45F
330
1F
100
AcDbEntity
  8
0
  6
SLD-Solid
 62
     7
370
    15
100
AcDbSpline
210
0.0
220
0.0
230
1.0
 70
     8
 71
     3
 72
    13
 73
     9
 74
     0
 42
0.00000001
 43
0.00000001
 40
0.0
 40
0.0
 40
0.0
 40
0.0
 40
0.1993740302257074
 40
0.3985823208159122
 40
0.6024159299455437
 40
0.817133409035244
 40
0.9931120400279858
 40
1.0
 40
1.0
 40
1.0
 40
1.0
 10
483.5505897049949
 20
162.1549848904916
 30
0.0
 10
483.5515986170097
 20
162.1011089953007
 30
0.0
 10
483.5536156023309
 20
161.9934019919517
 30
0.0
 10
483.5691085165457
 20
161.8493274016372
 30
0.0
 10
483.5917584509514
 20
161.7357631355025
 30
0.0
 10
483.6182483924664
 20
161.669773691229
 30
0.0
 10
483.6367930122754
 20
161.6551413129158
 30
0.0
 10
483.6451793171731
 20
161.6549931820855
 30
0.0
 10
483.6454952006385
 20
161.654987602503
 30
0.0
  0
LINE
  5
460
330
1F
100
AcDbEntity
  8
0
  6
SLD-Solid
 62
     7
370
    15
100
AcDbLine
 10
483.550589705
 20
162.1549848905
 30
0.0
 11
484.8080770449
 21
162.1549848905
 31
0.0
  0
SPLINE
  5
461
330
1F
100
AcDbEntity
  8
0
  6
SLD-Solid
 62
     7
370
    15
100
AcDbSpline
210
0.0
220
0.0
230
1.0
 70
     8
 71
     3
 72
    13
 73
     9
 74
     0
 42
0.00000001
 43
0.00000001
 40
0.0
 40
0.0
 40
0.0
 40
0.0
 40
0.1993743362741433
 40
0.3985815519216158
 40
0.6024164864387392
 40
0.8171313687590476
 40
0.9931117587380744
 40
1.0
 40
1.0
 40
1.0
 40
1.0
 10
484.8080770448939
 20
162.1549848904916
 30
0.0
 10
484.8045519987648
 20
162.1011091214152
 30
0.0
 10
484.7975048612898
 20
161.9934027432987
 30
0.0
 10
484.7430238967049
 20
161.8493262718908
 30
0.0
 10
484.6623151506578
 20
161.7357644368839
 30
0.0
 10
484.5661247146265
 20
161.6697729034847
 30
0.0
 10
484.4972830123198
 20
161.6551413069356
 30
0.0
 10
484.465794185129
 20
161.654993182028
 30
0.0
 10
484.4646080733434
 20
161.654987602503
 30
0.0
  0
LINE
  5
462
330
1F
100
AcDbEntity
  8
0
  6
SLD-Solid
 62
     7
370
    15
100
AcDbLine
 10
484.4646080733
 20
161.6549876025
 30
0.0
 11
483.6454952006
 21
161.6549876025
 31
0.0
  0
LINE
  5
463
330
1F
100
AcDbEntity
  8
0
  6
SLD-Solid
 62
     7
370
    15
100
AcDbLine
 10
483.550589705
 20
165.6549845329
 30
0.0
 11
483.550589705
 21
162.1549848905
 31
0.0
  0
LINE
  5
464
330
1F
100
AcDbEntity
  8
0
  6
SLD-Solid
 62
     7
370
    15
100
AcDbLine
 10
477.3507913911
 20
162.1549848905
 30
0.0
 11
477.3507913911
 21
166.1549855461
 31
0.0
  0
LINE
  5
465
330
1F
100
AcDbEntity
  8
0
  6
SLD-Solid
 62
     7
370
    15
100
AcDbLine
 10
484.8080770449
 20
162.1549848905
 30
0.0
 11
484.8080770449
 21
165.6549845329
 31
0.0
  0
LINE
  5
466
330
1F
100
AcDbEntity
  8
0
  6
SLD-Solid
 62
     7
370
    15
100
AcDbLine
 10
484.8080770449
 20
162.1549848905
 30
0.0
 11
488.3875320071
 21
162.1549848905
 31
0.0
  0
SPLINE
  5
467
330
1F
100
AcDbEntity
  8
0
  6
SLD-Solid
 62
     7
370
    15
100
AcDbSpline
210
0.0
220
0.0
230
1.0
 70
     8
 71
     3
 72
    13
 73
     9
 74
     0
 42
0.00000001
 43
0.00000001
 40
0.0
 40
0.0
 40
0.0
 40
0.0
 40
0.1993738876923975
 40
0.3985823012936403
 40
0.6024169907364547
 40
0.8171329536415383
 40
0.9931129486739625
 40
1.0
 40
1.0
 40
1.0
 40
1.0
 10
488.3875320070579
 20
162.1549848904916
 30
0.0
 10
488.3822294785309
 20
162.1011089958982
 30
0.0
 10
488.3716288224095
 20
161.993401922019
 30
0.0
 10
488.2895026589713
 20
161.8493269784437
 30
0.0
 10
488.1673155005033
 20
161.7357639414815
 30
0.0
 10
488.0208113495055
 20
161.6697731728865
 30
0.0
 10
487.9152641544695
 20
161.6551413594066
 30
0.0
 10
487.8668009558368
 20
161.6549931830501
 30
0.0
 10
487.8649757580056
 20
161.654987602503
 30
0.0
  0
LINE
  5
468
330
1F
100
AcDbEntity
  8
0
  6
SLD-Solid
 62
     7
370
    15
100
AcDbLine
 10
487.864975758
 20
161.6549876025
 30
0.0
 11
484.4646080733
 21
161.6549876025
 31
0.0
  0
LINE
  5
469
330
1F
100
AcDbEntity
  8
0
  6
SLD-Solid
 62
     7
370
    15
100
AcDbLine
 10
488.3875320071
 20
166.1549855461
 30
0.0
 11
488.3875320071
 21
162.1549848905
 31
0.0
  0
SPLINE
  5
46A
330
1F
100
AcDbEntity
  8
0
  6
SLD-Solid
 62
     7
370
    15
100
AcDbSpline
210
0.0
220
0.0
230
1.0
 70
     8
 71
     3
 72
    13
 73
     9
 74
     0
 42
0.00000001
 43
0.00000001
 40
0.0
 40
0.0
 40
0.0
 40
0.0
 40
0.006886771959588
 40
0.182866666346705
 40
0.3975822660361851
 40
0.6014168932490052
 40
0.8006257258730332
 40
1.0
 40
1.0
 40
1.0
 40
1.0
 10
477.5364051443681
 20
161.654987602503
 30
0.0
 10
477.5345800244182
 20
161.6549931833068
 30
0.0
 10
477.4861170285643
 20
161.655141372182
 30
0.0
 10
477.3805689920129
 20
161.6697731369934
 30
0.0
 10
477.2340656407692
 20
161.7357639945617
 30
0.0
 10
477.1118787321832
 20
161.8493271645039
 30
0.0
 10
477.0297520630073
 20
161.9934018903474
 30
0.0
 10
477.0191511074993
 20
162.1011089883032
 30
0.0
 10
477.0138484296546
 20
162.1549848904916
 30
0.0
  0
LINE
  5
46B
330
1F
100
AcDbEntity
  8
0
  6
SLD-Solid
 62
     7
370
    15
100
AcDbLine
 10
477.0138484297
 20
162.1549848905
 30
0.0
 11
477.3507913911
 21
162.1549848905
 31
0.0
  0
LINE
  5
46C
330
1F
100
AcDbEntity
  8
0
  6
SLD-Solid
 62
     7
370
    15
100
AcDbLine
 10
477.7558857446
 20
161.6549876025
 30
0.0
 11
477.5364051444
 21
161.6549876025
 31
0.0
  0
LINE
  5
46D
330
1F
100
AcDbEntity
  8
0
  6
SLD-Solid
 62
     7
370
    15
100
AcDbLine
 10
477.0138484297
 20
166.1549855461
 30
0.0
 11
477.0138484297
 21
162.1549848905
 31
0.0
  0
LINE
  5
46E
330
1F
100
AcDbEntity
  8
0
  6
SLD-Solid
 62
     7
370
    15
100
AcDbLine
 10
497.4506901913
 20
230.1549848607
 30
0.0
 11
467.9506900125
 21
230.1549848607
 31
0.0
  0
LINE
  5
46F
330
1F
100
AcDbEntity
  8
0
  6
SLD-Solid
 62
     7
370
    15
100
AcDbLine
 10
467.9506900125
 20
230.1549848607
 30
0.0
 11
467.9506900125
 21
230.654985874
 31
0.0
  0
LINE
  5
470
330
1F
100
AcDbEntity
  8
0
  6
SLD-Solid
 62
     7
370
    15
100
AcDbLine
 10
467.9506900125
 20
230.654985874
 30
0.0
 11
497.4506901913
 21
230.654985874
 31
0.0
  0
LINE
  5
471
330
1F
100
AcDbEntity
  8
0
  6
SLD-Solid
 62
     7
370
    15
100
AcDbLine
 10
497.4506901913
 20
230.1549848607
 30
0.0
 11
497.4506901913
 21
230.654985874
 31
0.0
  0
LINE
  5
472
330
1F
100
AcDbEntity
  8
0
  6
SLD-Solid
 62
     7
370
    15
100
AcDbLine
 10
467.9506900125
 20
230.1549848607
 30
0.0
 11
467.9506900125
 21
227.6549853822
 31
0.0
  0
LINE
  5
473
330
1F
100
AcDbEntity
  8
0
  6
SLD-Solid
 62
     7
370
    15
100
AcDbLine
 10
497.4506901913
 20
227.6549853822
 30
0.0
 11
497.4506901913
 21
230.1549848607
 31
0.0
  0
LINE
  5
474
330
1F
100
AcDbEntity
  8
0
  6
SLD-Solid
 62
     7
370
    15
100
AcDbLine
 10
467.9506900125
 20
227.6549853822
 30
0.0
 11
497.4506901913
 21
227.6549853822
 31
0.0
  0
LINE
  5
475
330
1F
100
AcDbEntity
  8
0
  6
SLD-Solid
 62
     7
370
    15
100
AcDbLine
 10
467.4506908619
 20
230.654985874
 30
0.0
 11
467.9506900125
 21
230.654985874
 31
0.0
  0
LINE
  5
476
330
1F
100
AcDbEntity
  8
0
  6
SLD-Solid
 62
     7
370
    15
100
AcDbLine
 10
467.9506900125
 20
230.1549848607
 30
0.0
 11
466.9506907799
 21
230.1549848607
 31
0.0
  0
ARC
  5
477
330
1F
100
AcDbEntity
  8
0
  6
SLD-Solid
 62
     7
370
    15
100
AcDbCircle
 10
467.4506904668
 20
230.1549861368
 30
0.0
 40
0.5
100
AcDbArc
 50
90.0
 51
180.0
  0
LINE
  5
478
330
1F
100
AcDbEntity
  8
0
  6
SLD-Solid
 62
     7
370
    15
100
AcDbLine
 10
466.9506907799
 20
227.6549853822
 30
0.0
 11
466.9506907799
 21
230.1549848607
 31
0.0
  0
LINE
  5
479
330
1F
100
AcDbEntity
  8
0
  6
SLD-Solid
 62
     7
370
    15
100
AcDbLine
 10
467.9506900125
 20
227.6549853822
 30
0.0
 11
466.9506907799
 21
227.6549853822
 31
0.0
  0
LINE
  5
47A
330
1F
100
AcDbEntity
  8
0
  6
SLD-Solid
 62
     7
370
    15
100
AcDbLine
 10
498.4506903553
 20
230.1549848607
 30
0.0
 11
497.4506901913
 21
230.1549848607
 31
0.0
  0
LINE
  5
47B
330
1F
100
AcDbEntity
  8
0
  6
SLD-Solid
 62
     7
370
    15
100
AcDbLine
 10
498.4506903553
 20
230.1549848607
 30
0.0
 11
498.4506903553
 21
227.6549853822
 31
0.0
  0
LINE
  5
47C
330
1F
100
AcDbEntity
  8
0
  6
SLD-Solid
 62
     7
370
    15
100
AcDbLine
 10
498.4506903553
 20
227.6549853822
 30
0.0
 11
497.4506901913
 21
227.6549853822
 31
0.0
  0
LINE
  5
47D
330
1F
100
AcDbEntity
  8
0
  6
SLD-Solid
 62
     7
370
    15
100
AcDbLine
 10
497.4506901913
 20
230.654985874
 30
0.0
 11
497.9506912046
 21
230.654985874
 31
0.0
  0
ARC
  5
47E
330
1F
100
AcDbEntity
  8
0
  6
SLD-Solid
 62
     7
370
    15
100
AcDbCircle
 10
497.9506904668
 20
230.1549861368
 30
0.0
 40
0.5
100
AcDbArc
 50
0.0
 51
90.0
  0
LINE
  5
47F
330
1F
100
AcDbEntity
  8
0
  6
SLD-Solid
 62
     8
370
    15
100
AcDbLine
 10
472.0506904983
 20
256.0549874296
 30
0.0
 11
472.0506904983
 21
254.9549874356
 31
0.0
  0
LINE
  5
480
330
1F
100
AcDbEntity
  8
0
  6
SLD-Solid
 62
     8
370
    15
100
AcDbLine
 10
493.3506906369
 20
254.9549874356
 30
0.0
 11
493.3506906369
 21
256.0549874296
 31
0.0
  0
LINE
  5
481
330
1F
100
AcDbEntity
  8
0
  6
SLD-Solid
 62
     8
370
    15
100
AcDbLine
 10
474.325690359
 20
253.2549847355
 30
0.0
 11
491.0756903106
 21
253.2549847355
 31
0.0
  0
LINE
  5
482
330
1F
100
AcDbEntity
  8
0
  6
SLD-Solid
 62
     8
370
    15
100
AcDbLine
 10
471.7006901615
 20
233.1549872151
 30
0.0
 11
475.7006903515
 21
233.1549872151
 31
0.0
  0
LINE
  5
483
330
1F
100
AcDbEntity
  8
0
  6
SLD-Solid
 62
     8
370
    15
100
AcDbLine
 10
489.700690318
 20
233.1549872151
 30
0.0
 11
493.7006900423
 21
233.1549872151
 31
0.0
  0
LINE
  5
484
330
1F
100
AcDbEntity
  8
0
  6
SLD-Solid
 62
     8
370
    15
100
AcDbLine
 10
490.2006904
 20
232.6549862018
 30
0.0
 11
475.2006902696
 21
232.6549862018
 31
0.0
  0
LINE
  5
485
330
1F
100
AcDbEntity
  8
0
  6
SLD-Solid
 62
     8
370
    15
100
AcDbLine
 10
475.2006902696
 20
166.6549865594
 30
0.0
 11
490.2006904
 21
166.6549865594
 31
0.0
  0
SPLINE
  5
486
330
1F
100
AcDbEntity
  8
0
  6
SLD-Solid
 62
     8
370
    15
100
AcDbSpline
210
0.0
220
0.0
230
1.0
 70
     8
 71
     3
 72
    10
 73
     6
 74
     0
 42
0.00000001
 43
0.00000001
 40
0.0
 40
0.0
 40
0.0
 40
0.0
 40
0.5720214904057037
 40
0.59953680448829
 40
1.0
 40
1.0
 40
1.0
 40
1.0
 10
475.3569405862294
 20
171.1549863657066
 30
0.0
 10
475.3282918413673
 20
171.1726721645847
 30
0.0
 10
475.2982650377677
 20
171.1912086837926
 30
0.0
 10
475.2628938964074
 20
171.2923230022115
 30
0.0
 10
475.2547406452878
 20
171.3624357378277
 30
0.0
 10
475.2471115776501
 20
171.4280408313581
 30
0.0
  0
SPLINE
  5
487
330
1F
100
AcDbEntity
  8
0
  6
SLD-Solid
 62
     8
370
    15
100
AcDbSpline
210
0.0
220
0.0
230
1.0
 70
     8
 71
     3
 72
    10
 73
     6
 74
     0
 42
0.00000001
 43
0.00000001
 40
0.0
 40
0.0
 40
0.0
 40
0.0
 40
0.4566721540379718
 40
0.4816078021726867
 40
0.9999999999999999
 40
0.9999999999999999
 40
0.9999999999999999
 40
0.9999999999999999
 10
490.1617620476685
 20
171.4728150954553
 30
0.0
 10
490.1521957957451
 20
171.3901313139876
 30
0.0
 10
490.1421071982182
 20
171.3029327538918
 30
0.0
 10
490.103153712733
 20
171.1910624000584
 30
0.0
 10
490.0731076596514
 20
171.1726007404619
 30
0.0
 10
490.0444405489765
 20
171.1549863657066
 30
0.0
  0
ENDSEC
  0
SECTION
  2
OBJECTS
  0
DICTIONARY
  5
C
330
0
100
AcDbDictionary
281
     1
  3
ACAD_GROUP
350
D
  3
ACAD_LAYOUT
350
1A
  3
ACAD_MLINESTYLE
350
17
  3
ACAD_PLOTSETTINGS
350
19
  3
ACAD_PLOTSTYLENAME
350
E
  0
DICTIONARY
  5
D
102
{ACAD_REACTORS
330
C
102
}
330
C
100
AcDbDictionary
281
     1
  0
DICTIONARY
  5
1A
102
{ACAD_REACTORS
330
C
102
}
330
C
100
AcDbDictionary
281
     1
  3
Layout1
350
1E
  3
Layout2
350
26
  3
Model
350
22
  0
DICTIONARY
  5
17
102
{ACAD_REACTORS
330
C
102
}
330
C
100
AcDbDictionary
281
     1
  3
Standard
350
18
  0
DICTIONARY
  5
19
102
{ACAD_REACTORS
330
C
102
}
330
C
100
AcDbDictionary
281
     1
  0
ACDBDICTIONARYWDFLT
  5
E
102
{ACAD_REACTORS
330
C
102
}
330
C
100
AcDbDictionary
281
     1
  3
Normal
350
F
100
AcDbDictionaryWithDefault
340
F
  0
LAYOUT
  5
1E
102
{ACAD_REACTORS
330
1A
102
}
330
1A
100
AcDbPlotSettings
  1

  2
none_device
  4

  6

 40
0.0
 41
0.0
 42
0.0
 43
0.0
 44
0.0
 45
0.0
 46
0.0
 47
0.0
 48
0.0
 49
0.0
140
0.0
141
0.0
142
1.0
143
1.0
 70
   688
 72
     0
 73
     0
 74
     5
  7

 75
    16
147
1.0
148
0.0
149
0.0
100
AcDbLayout
  1
Layout1
 70
     1
 71
     1
 10
0.0
 20
0.0
 11
420.0
 21
297.0
 12
0.0
 22
0.0
 32
0.0
 14
1.0000000000E+20
 24
1.0000000000E+20
 34
1.0000000000E+20
 15
-1.0000000000E+20
 25
-1.0000000000E+20
 35
-1.0000000000E+20
146
0.0
 13
0.0
 23
0.0
 33
0.0
 16
1.0
 26
0.0
 36
0.0
 17
0.0
 27
1.0
 37
0.0
 76
     0
330
1B
  0
LAYOUT
  5
26
102
{ACAD_REACTORS
330
1A
102
}
330
1A
100
AcDbPlotSettings
  1

  2
none_device
  4

  6

 40
0.0
 41
0.0
 42
0.0
 43
0.0
 44
0.0
 45
0.0
 46
0.0
 47
0.0
 48
0.0
 49
0.0
140
0.0
141
0.0
142
1.0
143
1.0
 70
   688
 72
     0
 73
     0
 74
     5
  7

 75
    16
147
1.0
148
0.0
149
0.0
100
AcDbLayout
  1
Layout2
 70
     1
 71
     2
 10
0.0
 20
0.0
 11
0.0
 21
0.0
 12
0.0
 22
0.0
 32
0.0
 14
0.0
 24
0.0
 34
0.0
 15
0.0
 25
0.0
 35
0.0
146
0.0
 13
0.0
 23
0.0
 33
0.0
 16
1.0
 26
0.0
 36
0.0
 17
0.0
 27
1.0
 37
0.0
 76
     0
330
23
  0
LAYOUT
  5
22
102
{ACAD_REACTORS
330
1A
102
}
330
1A
100
AcDbPlotSettings
  1

  2
none_device
  4

  6

 40
0.0
 41
0.0
 42
0.0
 43
0.0
 44
0.0
 45
0.0
 46
0.0
 47
0.0
 48
0.0
 49
0.0
140
0.0
141
0.0
142
1.0
143
1.0
 70
  1712
 72
     0
 73
     0
 74
     0
  7

 75
     0
147
1.0
148
0.0
149
0.0
100
AcDbLayout
  1
Model
 70
     1
 71
     0
 10
0.0
 20
0.0
 11
420.0
 21
297.0
 12
0.0
 22
0.0
 32
0.0
 14
0.0
 24
0.0
 34
0.0
 15
420.0
 25
297.0
 35
0.0
146
0.0
 13
0.0
 23
0.0
 33
0.0
 16
1.0
 26
0.0
 36
0.0
 17
0.0
 27
1.0
 37
0.0
 76
     0
330
1F
331
29
  0
MLINESTYLE
  5
18
102
{ACAD_REACTORS
330
17
102
}
330
17
100
AcDbMlineStyle
  2
Standard
 70
     0
  3

 62
   256
 51
90.0
 52
90.0
 71
     2
 49
0.5
 62
   256
  6
BYLAYER
 49
-0.5
 62
   256
  6
BYLAYER
  0
ACDBPLACEHOLDER
  5
F
102
{ACAD_REACTORS
330
E
102
}
330
E
  0
ENDSEC
  0
EOF
